Paramore

Paramore - All We Know Bass guitar tab

This is pretty sloppy actually. I just tabbed it out this morning so yeah.

here it is! Plus, check out my other tabs for Pressure ver.2 and here we go again. Enjoy!

intro (0:02) we tried so hard to understand...

G|---------------------------------------------|

D|------------------------------5--------------|

A|--------------------33333-3333-3--33333-3333-|x2

E|-000-55--000-33-000-------------3------------|

verse:

It takes some time to let you go...

G|-------------------------------------------|

D|----------------------------5--------------|

A|--------22--------33333-3333--3-33333-3333-|

E|-000-5~----33-000--------------3-----------|

Chorus:

G|-------------------------------------------|

D|-------------------------------------------|

A|-----------22-333333333333-----------------|

E|-0000-0000-----------------00-555-00-333-0~| x2

repeat intro and verse x2

chorus x2

breakdown

(1:59) you never said...

G|-----------------------------|

D|-----------------------------|

A|-3~-5-7-3~--5-7-3~33---3~----|

E|--------------------0~-------|

(2:23)

G|---------------------------------------|-------------------------------|

D|---------------------------------------|-------------------------------|

A|-33-----------------33-----------------|3333333333333------------------|

E|----0-0-0-0-2-2-2-2----0-0-0-0-3-3-3-3-|-------------00000000-22222222-|

|------------------------------------------------------|

|------------------------------------------5-----------|

|--333333333333------------------333333333--3-33333333-|

|--------------00000000-22222222-------------3---------|

Back to Chorus and you're done. :)Added by tabs-database.com and our distinguished partners

Get this song at:  amazon.com sheetmusicplus.com

Share your thoughts

0 Comments found