Paramore

Careful Tabs



More from Paramore

Paramore Tabs
Paramore Chords
Paramore Bass
Paramore Lyrics

Tuning - Drop C #
Intro--
Riff 1
GtrI                                                                   Verse
|-----------------------------------|----=----------------------------------|
|-----------------------------------|---------------------------------------|
|-----------------------------------|---------------------------------------|
|-44-4-444-4-777-99~-44-4-444-4-222-|-44-4-444-4-777-99~-44-4-444-4-222--4~-|
|-44-4-444-4-777-99~-44-4-444-4-222-|-44-4-444-4-777-99~-44-4-444-4-222--4~-|
|-44-4-444-4-777-99~-44-4-444-4-222-|-44-4-444-4-777-99~-44-4-444-4-222--4~-|

GtrII
|--------------------------------17----------------------------------|  ----|
|-9h10-9h10--9-------14h15p14-17-------9h10-9h10--9--------12-10-9---|  10~-|
|--------------11-9---------------------------------11-9-------------|2x----|
|--------------------------------------------------------------------|  ----|
|--------------------------------------------------------------------|  ----|
|--------------------------------------------------------------------|  ----|

Verse
Riff 2
GtrI
|-------------------------------------------------------------------|
|-------------------------------------------------------------------|
|-------------------------------------------------------------------|
|-00000000-22222222--4~----------------------00000000-22222222------|
|-00000000-22222222--4~----------------------00000000-22222222------|
|-00000000-22222222--4~----------------------00000000-22222222------|

GtrII
|------12----12-----12------9~--|------12-----12----12-----------|
|---10-----10----------2x---10~-|----10-----10--------2x---------|
|-11-----11----11-----------12~-|--11-----11----11---------------|
|-------------------------------|--------------------------------|
|-------------------------------|--------------------------------|
|-------------------------------|--------------------------------|

Riff 3
GtrI
|-------------------------------------------------------------------|
|-------------------------------------------------------------------|
|-------------------------------------------------------------------|
|-----------------------------------------------------------------0-|
|-44444444-77777777-22222222-00000000--44444444-77777777-22222222-0-|
|-44444444-77777777-22222222-00000000--44444444-77777777-22222222-0-|
  ******** ******** ******** ********  ******** ******** ********
GtrII palm mute
|-----------------------------------------------------------------------------|
|-----------------------------------------------------------------------------|
|-----------------------------------------------------------------------------|
|-11---11---11---11---11---11---11---11---9---9---9---9---11---11---11---11---|
|---12---12---12---12---11---11---11---11--11--11--11--11---12---12---12---12-|
|-----------------------------------------------------------------------------|

|------------------------------------------------------------|
|------------------------------------------------------------|
|------------------------------------------------------------|
|-11---11---11---11---11---11---11---11---9---9---9---9---7--|
|---12---12---12---12---11---11---11---11--11--11--11--11--9-|
|------------------------------------------------------------|


Riff 4
GtrI
|------------------------------------------------------------------------|
|------------------------------------------------------------------------|
|------------------------------------------------------------------------|
|-44444444-00000000-77777777-99999999-44444444-0000000-77777777-99999999-|
|-44444444-00000000-77777777-99999999-44444444-0000000-77777777-99999999-|
|-44444444-00000000-77777777-99999999-44444444-0000000-77777777-99999999-|

GtrII

|------------------------------------------------------------------------|
|------------------------------------------------------------------------|
|-11-11-11----------9999999999----11-11-11-------------------------------|
|----------11-11-11-------------------------11-11-11---9999999999--------|2x
|------------------------------------------------------------------------|
|------------------------------------------------------------------------|

Riff 5
GtrI
|----------------------------------------------------------------------|
|----------------------------------------------------------------------|
|---------------------------------------------------------------6/7\6--|
|-9~----9~----4~-------7~-----------9~----9~--------4~----2222---------|
|-9~----9~----4~-------7~-----------9~----9~--------4~----2222--4/5\4--|
|-9~----9~----4~-------7~-----------9~----9~--------4~----2222---------|

GtrII

|--------9~-----------------------------------9~-----------------------|
|-----7--------7----10~--12~--10~----------7--------7---10~---12~------|
|-7h9------7h9--------11---11-----11/--7h9------7h9-------11-----6/7\6-|
|----------------------------------------------------------------------|
|----------------------------------------------------------------4/5\4-|
|----------------------------------------------------------------------|


 Riff 1.5
GtrI
|---------------------------------------|
|---------------------------------------|
|---------------------------------------|
|-44-4-444-4-777-99~-44-4-444-4-222--4~-|
|-44-4-444-4-777-99~-44-4-444-4-222--4~-|
|-44-4-444-4-777-99~-44-4-444-4-222--4~-|
GtrII
|--------------------------------17----------------------------------|  ----|
|-9h10-9h10--9-------14h15p14-17-------9h10-9h10--9--------12-10-9---|  10~-|
|--------------11-9---------------------------------11-9-------------|  ----|
|--------------------------------------------------------------------|  ----|
|--------------------------------------------------------------------|  ----|
|--------------------------------------------------------------------|  ----|

Repeat Riff 2

Riff 3GtrI
|-------------------------------------------------------------------|
|-------------------------------------------------------------------|
|-------------------------------------------------------------------|
|---------------------------------000-----------------------------0-|
|-44444444-77777777-22222222-00000000--44444444-77777777-22222222-0-|
|-44444444-77777777-22222222-00000000--44444444-77777777-22222222-0-|
  ******** ******** ******** *****     ******** ******** ********
GtrII
GtrII palm mute
|-----------------------------------------------------------------------------|
|-----------------------------------------------------------------------------|
|-----------------------------------------------------------------------------|
|-11---11---11---11---11---11---11---11---9---9---9---9---11---11---11---11---|
|---12---12---12---12---11---11---11---11--11--11--11--11---12---12---12---12-|
|-----------------------------------------------------------------------------|

|------------------------------------------------------------|
|------------------------------------------------------------|
|------------------------------------------------------------|
|-11---11---11---11---11---11---11---11---9---9---9---9---7--|
|---12---12---12---12---11---11---11---11--11--11--11--11--9-|
|------------------------------------------------------------|

Repeat Riff 4 & 5

Riff 6
GtrI
|-----------------------------------------------------------------------------|
|-----------------------------------------------------------------------------|
|-----------------------------------------------------------------------------|
|-9~-9~-9~-0~-0~-0~-7~-7~-7~-2~-2~-2~----9~-9~-9~-0~-0~-0~-7~-7~-7~-2~-2~-2~--|
|-9~-9~-9~-0~-0~-0~-7~-7~-7~-2~-2~-2~----9~-9~-9~-0~-0~-0~-7~-7~-7~-2~-2~-2~--|
|-9~-9~-9~-0~-0~-0~-7~-7~-7~-2~-2~-2~----9~-9~-9~-0~-0~-0~-7~-7~-7~-2~-2~-2~--|
GtrII
|----------------------------17~--16~------------------------------17~--16~---|
|-9~-10~------------14~-17~--------------9~-10~------------14~-17~------------|
|----------11~--9~--------------------------------11~--9~---------------------|
|-----------------------------------------------------------------------------|
|-----------------------------------------------------------------------------|
|-----------------------------------------------------------------------------|

Riff 7
GtrI
|-------------------------------------------------------------------|
|-------------------------------------------------------------------|
|-------------------------------------------------------------------|
|-9-9------0-0-------7-7--------2-2------9-9----0-0-0----7-7----22--|
|-9-9------0-0-------7-7--------2-2------9-9----0-0-0----7-7----22--|
|-9-9------0-0-------7-7--------2-2------9-9----0-0-0----7-7----22--|
GtrII

|---------------------------------------------------------------------|
|---------------------------------------------------------------------|
|-1111-----1414--14/-6-6---/--13/-4-----1111--141414--14/-6-6-/-13/-4-|
|---------------------------------------------------------------------|
|-9-9------1212--12/-4-4---/--11/-2-----9-9---121212--12/-4-4-/-11/-2-|
|---------------------------------------------------------------------|

Riff 8
GtrI
|-----------------------------------------------------------------------------------|
|-----------------------------------------------------------------------------------|
|-----------------------------------------------------------------------------------|
|-----------------------------------------------------------------------------------|
|-44444444-777-999999-44444444-222222222--44444444-777-999999-44444444-22222222-----|
|-44444444-777-999999-44444444-222222222--44444444-777-999999-44444444-22222222-----|
  ******** *** ****** ******** *********  ******** *** ****** ******** ********
GtrII
|-----------------------------------------------------------------------------------|
|-----------------------------------------------------------------------------------|
|-----------------------------------------------------------------------------------|
|-11111111-11-12-1414141414141414141414---11111111-11-12-1414-----------------------|
|------------------------------------------------------------121212--111111111111---|
|-----------------------------------------------------------------------------------|
  * * * *  *  *  * * * * * * * * * * *    * * * *  *  *  * * * * *   * * * * * *
|-----------------------------------------------------------------------------------|
|-----------------------------------------------------------------------------------|
|-----------------------------------------------------------------------------------|
|-11111111-11-12-1414141414141414141414---11111111-11-12-1414-----------------------|
|------------------------------------------------------------121212--1111-111111----|
|-----------------------------------------------------------------------------------|
  * * * *  *  *  * * * * * * * * * * *    * * * *  *  *  * * * * *   * *
Riff 9
GtrI
|-2------------0--------------2--------------0----------------------|
|-2------------2--------------2--------------0----------------------|
|-2------------2--------------2--------------1----------------------|
|-4------------2--------------4--------------2----------------------|
|-4------------0--------------4--------------2----------------------|
|-------------------------------------------------------------------|
GtrI

|-------------------------------------------------------------------|
|-------------------------------------------------------------------|
|-------------------------------------------------------------------|
|-4~----------2~--------------4~------------------------------------|
|-------4~----------------------------4~------2~--------------------|
|-------------------------------------------------------------------|
Riff 4 & 5 & Main riff
GtrI
|---------------------------------------|
|---------------------------------------|
|---------------------------------------|
|-44-4-444-4-777-99~-44-4-444-4-222--4~-|
|-44-4-444-4-777-99~-44-4-444-4-222--4~-|
|-44-4-444-4-777-99~-44-4-444-4-222--4~-|
GtrII
|--------------------------------17----------------------------------|  ----|
|-9h10-9h10--9-------14h15p14-17-------9h10-9h10--9--------12-10-9---|  ----|
|--------------11-9---------------------------------11-9-------------|  -6~-|
|--------------------------------------------------------------------|  ----|
|--------------------------------------------------------------------|  -4~-|
|--------------------------------------------------------------------|  ----|
Get this song at amazon.com      Ebay     Ringtones Ringtones  


Learn to play: Songwriting, Piano, Harmonica, Guitar
Also available at Muzikum: Paramore - Careful lyrics

Related Paramore Tabs

Thats What You Get tabs
Thats What You Get Bass tabs
Never Let This Go tabs
Pressure Solo tabs
Turn It Off Acoustic tabs
Ignorance tabs
Let This Go Solo tabs
Where The Lines Overlap tabs
Here Wo Go Again tabs
Ignorance Acoustic(from deluxe edition) tabs
All We Know tabs
Where The Lines Overlap Acoustic tabs
Born For This Bass tabs
Misery Business tabs
Fences tabs
Miracle tabs
Riot (album) tabs
When It Rains tabs
Careful tabs
Brighter Bass tabs


Guitar Tabs









All tabs are property and copyright of their owners. All tabs provided for educational purposes only. Privacy Policy, DMCA