Pachelbel Johann

Pachelbel Johann - Pachelbels Canon guitar tab

Pachelbel?s Canon

-----------------

Tabbed by Ewan Pettman.

This is my arrangement of Pachelbel?s Canon for classical guitar. It?s only a couple of minutes long and doesn?t sound anything like as good as the version for strings, but the latter requires at least five instrumentalists playing at least three different kinds of stringed instrument, whereas only one guitar is needed to play my arrangement. The arrangement for strings is in D but my version is in E so as to make downtuning unnecessary. I?ve varied the spacing in between the notes to indicate the notes? durations, which should be useful.

Hope you enjoy!

E----------------------------------------------------------------

B----------------------------------------------------------------

G----------------------------------------------------------------

D----------------------------------------------------------------

A----------------------------------------------------------------

E-0---------------7---------------9---------------4--------------

E----------------------------------------------------------------

B----------------------------------------------------------------

G----------------------------------------------------------------

D----------------------------------------------------------------

A----------------------------------------------------------------

E----5---------------0---------------5---------------7-----------

E----------------------------------------------------------------

B----------------------------------------------------------------

G----------------------------------------------------------------

D----------------------------------------------------------------

A---------------14---------------9---------------11--------------

E-------0----------------7---------------9----------------4------

E----------------------------------------------------------------

B----------------------------------------------------------------

G----------------------------------------------------------------

D----------------------------------------------------------------

A----6---------------7---------------2---------------7-----------

E------------5---------------0---------------5---------------7---

E----------------------------------------------------------------

B----------------------------------------------------------------

G----------------------------------------------------------------

D------------------------14----------------9----------------11---

A-------9-----------14--------14-------9-------9-------11--------

E---------------0------------------7---------------9-------------

E----------------------------------------------------------------

B----------------------------------------------------------------

G----------------------------------------------------------------

D----------------6---------------7---------------2---------------

A---11-------6-------6-------7-------7-------2-------2-------7---

E--------4---------------5---------------0---------------5-------

E-----------------------------------12---------------7-----------

B----------------------------------------------------------------

G----------------------------------------------------------------

D---7---------------9--------------------------------------------

A-------7-------9------------------------------------------------

E-----------7---------------0----------------7---------------9---

E-------9---------------4---------------5---------------0--------

B----------------------------------------------------------------

G----------------------------------------------------------------

D----------------------------------------------------------------

A----------------------------------------------------------------

E---------------4---------------5---------------0----------------

E----------5---------------7----------------12----------------7--

B--------------------------------------12--------12-------7------

G----------------------------------------------------------------

D----------------------------------------------------------------

A----------------------------------------------------------------

E--5---------------7---------------0------------------7----------

E----------------9--------------4---------------5----------------

B----7-------9-------9------4-------4-------5-------5-------0----

G----------------------------------------------------------------

D----------------------------------------------------------------

A----------------------------------------------------------------

E--------9---------------4--------------5---------------0--------

E--0---------------5---------------7------------12----------12---

B------0-------5-------5-------7-------------12----12----12------

G-----------------------------------------------------13---------

D----------------------------------------------------------------

A----------------------------------------------------------------

E----------5---------------7---------------0---------------------

E--------7---7-----7----9-9-9-9-----9-----4---4-----4----5-5-5---

B-12---7---7-----7-----9-9-9-9----9-----4---4-----4-----5-5-5-5--

G--------------8---------------10---------------5----------------

D----------------------------------------------------------------

A----------------------------------------------------------------

E----7---------------9----------------4---------------5----------

E-5----5-----0-------0-------5---5-----5-----7---7-----7-12------

B----5-----0---0---0---0---5---5-----5-----7---7-----7-----------

G--6-------------1-----------------6---------------8-------------

D----------------------------------------------------------------

A----------------------------------------------------------------

E--------0---------------5---------------7---------------0-------

E------------7---------------9---------------4---------------5---

B----------------------------------------------------------------

G----------------------------------------------------------------

D----------------------------------------------------------------

A----------------------------------------------------------------

E------------7---------------9---------------4---------------5---

E---------------0---------------5---------------7----------------

B----------------------------------------------------------------

G----------------------------------------------------------------

D----------------------------------------------------------------

A----------------------------------------------------------------

E---------------0---------------5---------------7----------------

E--12---------------7---------------9---------------4------------

B--12---------------7---------------9---------------4------------

G----------------------------------------------------------------

D----------------------------------------------------------------

A----------------------------------------------------------------

E---0---------------7---------------9---------------4------------

E--------------5---------------0---------------5-----------------

B--------------5---------------0---------------5-----------------

G----------------------------------------------------------------

D----------------------------------------------------------------

A----------------------------------------------------------------

E--------------5---------------0---------------5-----------------

E-7---------------12---------------7---------------9-------------

B-7---------------12---------------7---------------9-------------

G----------------------------------------------------------------

D----------------------------------------------------------------

A----------------------------------------------------------------

E-7--------------------------------------------------------------

E-----4---------------5---------------0---------------5----------

B-----4---------------5---------------0---------------5----------

G----------------------------------------------------------------

D----------------------------------------------------------------

A----------------------------------------------------------------

E----------------------------------------------------------------

E--------7---------------12v---------------7v--------------7s9v--

B--------7-------------------------------------------------------

G----------------------------------------------------------------

D----------------------------------------------------------------

A----------------------------------------------------------------

E----------------------------------------------------------------

E----------------4v--------------4h5v---------------0------------

B----------------------------------------------------------------

G----------------------------------------------------------------

D----------------------------------------------------------------

A----------------------------------------------------------------

E----------------------------------------------------------------

E-----0h5-------5--5s7---7v---------------0----------------------

B----------------------------------------------------------------

G----------------------------------------------------------------

D----------------------------------------------------------------

A----------------------------------------------------------------

E-----------------------------------------0----------------------

Symbols:-

v vibrato

s slide

h hammer on

Get this song at:  amazon.com sheetmusicplus.com

Share your thoughts

0 Comments found