Ozzy Osbourne

Ozzy Osbourne - Mrs J guitar tab

=== †Crankster's Ozzy Page†

=== http://crankster.cjb.net

=== crankster@mailexcite.com

Transcriber - Fretspyder

Mrs. J

Ozzy Osbourne - One Up The B-Side, No More Tears Demo Session

intro 2x then strumm the

|--------0----------|---------5------------|-----0------------0----------| chords G,D,Em,C

|-------------------|----------------------|-3----------3----------------|

|----7-----7---7----|-----7-----7----------|------------------------0----|

|-5----5-----5----5-|-4-----4-----4---4-2-|---2---2--0---------0^2---2/-|

|-------------------|----------------------|---------------3-------------|

|-------------------|----------------------|-----------------------------|

main theme

|------|--------------10----------|---------------------|---------------|

|-8-10-|-^12-------12----12-10----|-10-12-10-8------8---|-8^b----8~~----|

|------|--------------------------|---------------9---9-|---------------|

|------|--------------------------|---------------------|---------------|

|------|--------------------------|---------------------|---------------|

|------|--------------------------|---------------------|---------------|

|-----------10------------|--------------------------|------------------|

|-12-----12----12-10------|-10-12-10-8-----8^10------|------------------|

|-------------------------|---------------------9-~~-|-(9)--------------|

|-------------------------|--------------------------|------------------|

|-------------------------|--------------------------|------------------|

|-------------------------|--------------------------|------------------|

|--------------------------|---------------------|----------------------|

|-----10-------12-------13-|----13^15-13-12------|-12^13-12-10----------|

|--------------------------|---------------------|----------------------|

|-/10------/12------/14----|-14------------------|----------------------|

|--------------------------|---------------------|----------------------|

|--------------------------|---------------------|----------------------|

end of main theme

|--------------------------|----------------------|----------------------|

|-----10------12--------13-|----13^15-13-12-------|----------------------|

|--------------------------|----------------------|-11^12-11-------------|

|-/10-----/12-------/14----|-14-------------------|----------------------|

|--------------------------|----------------------|----------------------|

|--------------------------|----------------------|----------------------|

|----------10------------|---------------------|-------------------------|

|-12----12----12-10------|-10-12-10-8------8---|-8^b-------8-~~~---------|

|------------------------|---------------9---9-|-------------------------|

|------------------------|---------------------|-------------------------|

|------------------------|---------------------|-------------------------|

|------------------------|---------------------|-------------------------|

|---------10-------------|---------------------|--------------------------|

|-12---12----12-10-------|-10-12-10-8----------|-7------------------------|

|------------------------|---------------------|-----9--------------------|

|------------------------|-------------------9-|---9----------------------|

|------------------------|---------------------|--------------------------|

|------------------------|---------------------|--------------------------|

|------------------------|-------------------10-|--------------------------|

|---8--------8-10--------|-8^10--10^b^10-8------|-10^b^10-8----------------|

|-9----------------------|-----------------9----|--------------------------|

|------------------------|----------------------|--------------------------|

|------------------------|----------------------|--------------------------|

|------------------------|----------------------|--------------------------|

|----------------------------------|-------------6-7-9-10---------|----------|

|-----8-8-----10^b^10-8----10------|-8-10-8--10^b---------10^b^10-|-8--------|

|-7^9-------------------9----------|------------------------------|----------|

|----------------------------------|------------------------------|----------|

|----------------------------------|------------------------------|----------|

|----------------------------------|------------------------------|----------|

|---------------------------|-------------------------|----------------------|

|-----10-------12-------13--|----13^15-13-12----------|-12-13-12-10----------|

|---------------------------|-------------------------|----------------------|

|-/10------/12------/14-----|-14----------------------|----------------------|

|---------------------------|-------------------------|----------------------|

|---------------------------|-------------------------|----------------------|

|---------------------------|--------------------------|----------------------|

|-----10-------12-------13--|----13^15-13-12----10-----|-8--------------------|

|---------------------------|--------------------------|----------------------|

|-/10------/12------/14-----|-14-----------------------|----------------------|

|---------------------------|--------------------------|----------------------|

|---------------------------|--------------------------|----------------------|

|---------------------------|--------------------------7----|------------------|

|-8---8--12^10^8-10-12-8----|-8---8-10-8--10^b^10-8-10---8--|-8--10------------|

|--7^9----------------------|---9---------------------------|------------------|

|---------------------------|-------------------------------|------------------|

|---------------------------|-------------------------------|------------------|

|---------------------------|-------------------------------|------------------|

|--------7----------------|----------------------------|-------------------10----|

|-7-8-10---10---8---------|---------------7-8-10-8-----|-7-8-8----7-7^8-------10-|

|-----------------/11-97-|7----7^9---7^9--------------|---------------9^7-------|

|-------------------------|--------7^9-----------------|-------------------------|

|-------------------------|----------------------------|-------------------------|

|-------------------------|----------------------------|-------------------------|

HARM. HARM. HARM. HARM.

|--------------------------||------------||-----------|---------|----------------||

|--------------------------||-back to----||----12-----|---7-----|---------5------||

|-9^pb^7---9---------------||-intro riff-||----12-----|---7-----|---7-----5------||

|--------9-----------------||------------||-12--------|-7-------|-------5--------||

|--------------------------||------------||-----------|---------|-5--------------||

|--------------------------||------------||-----------|---------|----------------||

|----------10-------------|----------------------|---------------------|

|-12----12----12-10-------|-10-12-10-8-------8---|-8^b------8----------|

|-------------------------|----------------9---9-|---------------------|

|-------------------------|----------------------|---------------------|

|-------------------------|----------------------|---------------------|

|-------------------------|----------------------|---------------------|

|----------10-------------|------------------------|-----------------------------------|

|-12----12----12-10-------|-10-12-10-8-------7^8---|-----------7^8^10---10----8----7---|

|-------------------------|----------------------9-|--------7^9------------------------|

|-------------------------|------------------------|-----7^9---------------------------|

|-------------------------|------------------------|-----------------------------------|

|-------------------------|------------------------|-----------------------------------|

|--------------||

|-12-----------||

|-14^b---------||

|--------------||

|--------------||

|--------------||

Get this song at:  amazon.com sheetmusicplus.com

Share your thoughts

0 Comments found