Otep

Otep - Sacrilege guitar tab

Sacrilege

Otep

Sevas Tra

tabbed by crazytom

deathtone@wanadoo.fr

Intro :

--------------------

--------------------

--------------------

------2---2-3-2-1---

---1------2-3-2-1---

----------2-3-2-1---

-----------------------------------

-----------------------------------

-----------------------------------

---3-0-3-0--0-3-0--0-3-0-1-2-3-3---

---3-0-3-0--0-3-0--0-3-0-1-2-3-3---

---3-0-3-0--0-3-0--0-3-0-1-2-3-3---

Verse :

---------------------------------------------------------------------

---------------------------------------------------------------------

---------------------------------------------------------------------

---2-1-0--2-1-0-1--0-1-0-1-2-2-2-----2-1-0--2-1-0-1--0-1-0-1-0-0-0---

---2-1-0--2-1-0-1--0-1-0-1-2-2-2-----2-1-0--2-1-0-1--0-1-0-1-0-0-0---

---2-1-0--2-1-0-1--0-1-0-1-2-2-2-----2-1-0--2-1-0-1--0-1-0-1-0-0-0---

-----------------------------------------------------------------

-----------------------------------------------------------------

-----------------------------------------------------------------

---2-1-0--2-1-0-1--0-1-0-1-2-2-2-----2-1-0--2-1-0--2-2-2-1-1-1---

---2-1-0--2-1-0-1--0-1-0-1-2-2-2-----2-1-0--2-1-0--2-2-2-1-1-1---

---2-1-0--2-1-0-1--0-1-0-1-2-2-2-----2-1-0--2-1-0--2-2-2-1-1-1---

-------------------------------------------------------------------

-------------------------------------------------------------------

-------------------------------------------------------------------

---0-2-1-0-2-1-0-1-0-1-0-1-2-2-2---0-2-1-0-2-1-0-1-0-1-0-1-0-0-0---

---0-2-1-0-2-1-0-1-0-1-0-1-2-2-2---0-2-1-0-2-1-0-1-0-1-0-1-0-0-0---

---0-2-1-0-2-1-0-1-0-1-0-1-2-2-2---0-2-1-0-2-1-0-1-0-1-0-1-0-0-0---

Chorus :

---------------------------------------------------------

---------------------------------------------------------

---------------------------------------------------------

---1-1-1-1-1-1--2--5--4--3-----1-1-1-1-1-1--1--2--1--0---

---1-1-1-1-1-1--2--5--4--3-----1-1-1-1-1-1--1--2--1--0---

---1-1-1-1-1-1--2--5--4--3-----1-1-1-1-1-1--1--2--1--0---

Bridge :

-----------------------|-----------------------------

-----------------------|-----------------------------

-----------------------|-----------------------------

---1---5---1---2-2-2---|---3\2-0-0-0-0-1-0-0-1-0-1---

---1---5---1---2-2-2---|---3\2-0-0-0-0-1-0-0-1-0-1---

---1---5---1---2-2-2---|---3\2-0-0-0-0-1-0-0-1-0-1---

End :

-------------------------------------------------

-------------------------------------------------

-------------------------------------------------

---1-1-1-1-1-1-1-1-1-1-1-1-1-1-1-1--1--2--1--0---

---1-1-1-1-1-1-1-1-1-1-1-1-1-1-1-1--1--2--1--0---

---1-1-1-1-1-1-1-1-1-1-1-1-1-1-1-1--1--2--1--0---

---------------------------

---------------------------

---------------------------

---2-2-1---2-2-1---2-2-1---

---2-2-1---2-2-1---2-2-1---

---2-2-1---2-2-1---2-2-1---

Get this song at:  amazon.com sheetmusicplus.com

Share your thoughts

0 Comments found