Otep

Otep - Possession guitar tab

Possession

Otep

Sevas Tra

tabbed by crazytom (deathtone@wanadoo.fr)

Intro :

-----------

-----------

-----------

-----------

---2---2---

---2---2---

----------------------------------------------|------------------

----------------------------------------------|------------------

----------------------------------------------|---------------

---0-2-2-2-2-3--5-4---2-0-0-0-0-2-0-0-0-0-2---|---------------

---0-2-2-2-2-3--5-4---2-0-0-0-0-2-0-0-0-0-2---|------------

---0-2-2-2-2-3--5-4---2-0-0-0-0-2-0-0-0-0-2---|------------------

-----------------------------------------

-----------------------------------------

-----------------------------------------

---2---3---5-4---2-0-0-0-0-2-0-0-0-0-2---

---2---3---5-4---2-0-0-0-0-2-0-0-0-0-2---

---2---3---5-4---2-0-0-0-0-2-0-0-0-0-2---

Verse :

-------------------------------------------------------------

-------------------------------------------------------------

-------------------------------------------------------------

---0-0-0-------------------------0-0-0-----------------------

---0-0-0---1-1-1-----------------0-0-0---2-2-2---------------

---0-0-0---------1-1-1-0-0-0-----0-0-0---------2-2-2-1-1-1---

-----------------------------------------------------------

-----------------------------------------------------------

-----------------------------------------------------------

---0-0-0---8-8-8---------------0-0-0---9-9-9---------------

---0-0-0---------7-7-7---------0-0-0---------8-8-8---------

---0-0-0---------------6-6-6---0-0-0---------------7-7-7---

Pre-chorus :

--------------------------------

--------------------------------

--------------------------------

---0-0---3\2-0-3\2---0-0--1-1---

---0-0---3\2-0-3\2---0-0--1-1---

---0-0---3\2-0-3\2---0-0--1-1---

Chorus :

-------------------------------------|-------------------------------------

-------------------------------------|-------------------------------------

-------------------------------------|-------------------------------------

-----------------3-x-x-x-3-x-x-x-3---|---2-2-2-3-5-4---3-x-x-x-3-x-x-x-3---

---1-1-1-2-5-4---3-x-x-x-3-x-x-x-3---|---2-2-2-3-5-4---3-x-x-x-3-x-x-x-3---

-----------------3-x-x-x-3-x-x-x-3---|---2-2-2-3-5-4---3-x-x-x-3-x-x-x-3---

Bridge :

-----------------------------------

-----------------------------------

-----------------------------------

-----------------------------------

---1-0-0-1-0-0-1-0--0--0--0-0--0---

---1-0-0-1-0-0-1-0--0--0--0-0--0---

--------------------------------

--------------------------------

--------------------------------

--------------------------------

---2-1-0-1-2-1-0-1-2-1-0--1-1---

---2-1-0-1-2-1-0-1-2-1-0--1-1---

? paint your face with the blood  of the WEAK ?

-------------------------

-------------------------

-------------------------

---5-4-2-3-2-2-1-0-1-0---

---5-4-2-3-2-2-1-0-1-0---

---5-4-2-3-2-2-1-0-1-0---

                         ? Possession… ?

------------------------|------------------------|

------------------------|------------------------|

------------------------|------------------------|

---2-2-2-2-2--5--5--5---|---2-2-2-2-2--3--2--1---|

---2-2-2-2-2------------|---2-2-2-2-2--3--2--1---|

---2-2-2-2-2--3--3--3---|---2-2-2-2-2--3--2--1---|

-----------------------------------

-----------------------------------

-----------------------------------

---1-—3—-3—-2--2-2---3-3-2-2-1-1---

---1--3--3--2--2-2---3-3-2-2-1-1---

---1--3--3--2--2-2---3-3-2-2-1-1---

Get this song at:  amazon.com sheetmusicplus.com

Share your thoughts

0 Comments found