Otep

Otep - My Confession guitar tab

-------------------------------------------------------------------------------

My Confession - OTEP

-------------------------------------------------------------------------------

Tabbed by: Dustyattic

Tuning:

1,2,3, 4

|-------------------------|-------|----------|------------------------------|

|-------------------------|-------|-----0----|------------------------------|

|-------------------------|--0----|---0--0---|------------------------------|

|-----6-------6-------6---|6---6--|-6-----6--|------------------------------|

|---5---5---5---5---5---5-|-----5-|--------5-|------------------------------|

|-0-------0-------0-------|-------|----------|------------------------------|

1,2,3 4

|---------------------|--------|--------|-~bend~----------------------------|

|---------------------|-----3--|4-3---3-|-4-4-4-3~--------------------------|

|---------------------|---1---1|----1---|-----------------------------------|

|---6-6-6---6-6-5/6---|-0------|--------|-----------------------------------|

|--5-5-5-5-5-5-5------|--------|--------|-----------------------------------|

|-0-------0-----------|--------|--------|-----------------------------------|

1st 2nd time

|-------------------------|---------|----------------------------------------|

|-----2-3-----1-0---------|---------|----------------------------------------|

|----------------------2-3|-----3-2-|-----3--2---1~---- Effect or dive w bar-|

|---0-------0-------0-----|---0-----|---0------------------------------------|

|-------------------------|---------|----------------------------------------|

|-0-------0-------0-------|-0-------|-0--------------------------------------|

Tuning is not standard, it's dropped something or other, lower than C.

On the first part, top (fattest) and next string are lightly muted, the 3rd is not.

Use these tabs as a guide and figure out when to switch parts. The distorted part is

the first part only with distortion, but there may be subtle differences.

May not be perfect, but its an alternate way from the other tab for this song.

| / slide up

| \\ slide down

| h hammer-on

| p pull-off

| ~ vibrato

| + harmonic

| x Mute note

===============================================================================Added by tabs-database.com and our distinguished partners

Get this song at:  amazon.com sheetmusicplus.com

Share your thoughts

0 Comments found