Otep

Otep - Jonestown Tea guitar tab

Song: Jonestown Tea

Artist: Otep

Album: Sevas Tra (2002).

Track#: 12

Tabbed By: Robbie K

i have this whole album done.. someone else has uploaded MY tabs from another site on to this one.

Intro:

C |-------------------------------------------------------------------------|

G |-------------------------------------------------------------------6--5--| after playing 3 times

Eb|-------------------------------------------------------------------------| he adds small variations

Bb|---5---6---2---1-----5---6---2---1------5---6---2---1------5---6---------| which im leaving for now

F |-0---0---0---0-----0---0---0---0------0---0---0---0------0---0---0----0--|

Bb|-------------------------------------------------------------------------|

Build up to chorus:

C |----------------------------|-------------------------------------|

G |----------------------------|-------------------------------------|

Eb|----------------------------|-------------------------------------|

Bb|-7--7--8--8--9--9--10--10---|-7-7-7-7-8-8-8-8-9-9-9-9-10-10-10-10-|

F |--0--0--0--0--0--0---0---0--|-0-0-0-0-0-0-0-0-0-0-0-0--0--0--0--0-|

Bb|----------------------------|-------------------------------------|

Chorus:

C |-12-12-12-12-12-12-12-12-12-12-12-12-12-|

G |-16-16-16-16-16-16-16-16-16-16-16-16-16-|

Eb|----------------------------------------|

Bb|----------------------------------------|

F |----------------------------------------|

Bb|----------------------------------------|

keep it bent

------------------------------------------

C |-12--12-12-12-12-12-12--12-12--12--12--12--12----|

G |-16b-16-16-16-16-16---16-16--16--16--16--16--16r-|

Eb|-------------------------------------------------|

Bb|-------------------------------------------------|

F |-------------------------------------------------|

Bb|-------------------------------------------------|

C |-----|

G |-----|

Eb|-----|

Bb|--0--|

F |--0--|

Bb|--0--|

Bridge:

C |--------------------------|

G |--------------------------|

Eb|--------------------------|

Bb|--------------------------|

F |--------------------------|

Bb|--6-6-6-6-6-6--0-0-0-6-0--|

C |---------------|

G |---------------|

Eb|---------------|

Bb|---------------|

F |--6-6-6-0-1-0--|

Bb|--6-6-6-0-1-0--|

.....

C |---------------|

G |---------------|

Eb|---------------|

Bb|---------------|

F |--6-6-6-0-1-0--|

Bb|--6-6-6-0-1-0--|

C |---------------------------------------------|

G |---------------------------------------------|

Eb|-----------------------------------------0---|

Bb|-------------------0---------------------0---|

F |-------------------0---------------------0---|

Bb|-0-0-0-0--0-0-0-0-----0-0-0-0--0-0-0-0-------|

....... ....... ....... .......

C |------------------------------------------------------------------|

G |------------------------------------------------------------------|

Eb|------------------------------------------------------------------|

Bb|------------------------------------------------------------------|

F |------------------------------------------------------------------|

Bb|-0-0-0-0-0-0-0-0-0-0-0-0-0-0-0-0-0-0-0-0-0-0-0-0-0-0-0-0-0-0-0-0--|

...............................................................

C |--------------|

G |--------------|

Eb|--------------|

Bb|--7--7--7--0--|

F |--0--0--0--0--|

Bb|--0--0--0--0--|

Bridge 2 :

C |--------------------------------------|

G |--------------------------------------|

Eb|--------------------------------------|

Bb|---7---8---11---12---14---15---14---8-|

F |-0---0---0----0----0----0----0----0---|

Bb|--------------------------------------|

Added by tabs-database.com and our distinguished partners

Get this song at:  amazon.com sheetmusicplus.com

Share your thoughts

0 Comments found