Otep

Otep - Jonestow Tea guitar tab

Jonestow Tea

Otep

Sevas Tra

tabbed by crazytom

deathtone@wanadoo.fr

Verse:

---------------------|---------------------

---------------------|-------------2---1---

---------------------|---------------------

-----1---2-----------|-----1---2-----------

-------------3---2---|---------------------

---1---1---1---1-----|---1---1---1---1-----

Pre-chorus:

-------------------------------------

-------------------------------------

-------------------------------------

---3-3-3-3-4-4-4-4-5-5-5-5-6-6-6-6---

-------------------------------------

-------------------------------------

Chorus:

---7-7-7-7-7-7-7-7---|---8-8-8-8-8-8-8-8---

---------------------|---------------------

---4-4-4-4-4-4-4-4---|---5-5-5-5-5-5-5-5---

---------------------|---------------------

---------------------|---------------------

---------------------|---------------------

Bridge:

------------|------------------------|-------------------------------

------------|------------------------|-------------------------------

------------|------------------------|-------------------------------

---1/6\1----|------------------------|---2-2-2-0-1-1---2-2-2-0-1-0---

---1/6\1----|----7-7-7-7-------7-----|---2-2-2-0-1-1---2-2-2-0-1-0---

---1/6\1----|----0-0-0-0-6---6-0-6---|---2-2-2-0-1-1---2-2-2-0-1-0---

----------------------------------|-----------------------

----------------------------------|-----------------------

------------------------------3---|-----------------------

---2--2--2--2-----2--2--2--2------|---6-6-6-6---6-6-6-6---

---2--2--2--2-----2--2--2--2--1---|---6-6-6-6---6-6-6-6---

---2--2--2--2-----2--2--2--2------|---6-6-6-6---6-6-6-6---

-------------------

-----------1-2-----

-------2-3-----3-2-

---2-3-------------

-------------------

-------------------

Get this song at:  amazon.com sheetmusicplus.com

Share your thoughts

0 Comments found