Otep

Otep - Ghostflowers guitar tab

I got bored and had nothing else to do so I thought I would submit the tab. This is all

got for the intro.

2X

|------------------------|

|------------------------|

|------------------------|

|--10----10---10---------|

|--8-----8----8----------|

|--8-----8----9----------|

|--------------------------------------------------------------------------|

|--------------------------------------------------------------------------|

|--------------------------------------------------------------------------|

|------10-------------10---------------10-------------10-------------------|

|----8----8---8-----8----8---8---8---8----8---8-----8----8---8---8---------|

|--8--------8---8-9--------9---9---8--------8---8-9--------9---9-----------|

|--------------------------------------------------------------------------|

|--------------------------------------------------------------------------|

|--------------------------------------------------------------------------|

|------10-------------10-----------------10---10---------------------------|

|----8----8---8-----8----8---8---8-----8----8----8-------------------------|

|--8--------8---8-9--------9---9----10-------------10-9--------------------|

|--------------------------------------------------------------------------|

|--------------------------------------------------------------------------|

|--------------------------------------------------------------------------|

|------10-------------10---------------10-------------10-------------------|

|----8----8---8-----8----8---8---8---8----8---8-----8----8---8---8---------|

|--8--------8---8-9--------9---9---8--------8---8-9--------9---9-----------|

|--------------------------------------------------------------------------|

|--------------------------------------------------------------------------|

|--------------------------------------------------------------------------|

|------10-------------10----------------10---10----------------------------|

|----8----8---8-----8----8---8---8----8----8----8--------------------------|

|--8--------8---8-9--------9---9---10-------------10-9---------------------|

|-----------------------|

|-----------------------|

|-----------------------|

|-------10---10---------|

|-----8----8----8-------|

|--10-------------10-9--|

|-------------------------------------------------------|

|-------------------------------------------------------|

|-------------------------------------------------------|

|--10-10-10-10-10---------------------------------------|

|--8--8--8--8--8----------------------------------------|

|--10-10-10-10-9----------------------------------------|

:) ............Added by tabs-database.com and our distinguished partners

Get this song at:  amazon.com sheetmusicplus.com

Share your thoughts

0 Comments found