Otep

Otep - Filthee Bass guitar tab

Otep

Filthee

Verse 1/Intro:

-------------------------------|

-------------------------------|

-------------------------------|

--0-0-4-4-3-3-6-6-3-3-4-4-3-3--| x4

Chorus:

--------------------------|

--------------------------|

--------------------------|

--0-4-3--6-3--4-3---------| x4

-------------------------------------------------------------------------------------|

-----12-12-12-12-----10-12-12-12-12----12-12-12-12-----10-14-14-14-14---(12-12-12-12-|

-------------------------------------------------------------------------------------|

--0-0------------0-0----------------0-0------------0-0----------------0--------------|

Verse Fill:

---------------------------------------------------------------------|

--------15-15-15-15-16-16-16-16--------15-15-14-15-------14-14-14-14-|

---------------------------------------------------12-10-------------|

--0-0-4/------------------------6-6-3/-------------------------------|

Verse 2:

---------------------------------------------------|

---------------------------------------------------|

---------------------------------------------------|

--6-0-0-0-0-0-0-6-0-6-0-6-0-0-0-0-0-3-3-3-6-6-6-6--|

Bridge: P

----------------------------|

--------------------------0-|

----------------------------|

--0-0--0-0--0-0--0-0--0-0---|

Outro:

------------------------------|

------------------------------|

------------------------------|

--0-0-0-8-8-8-0-0-0-8-8-8-0-8-|

Sing Order:

Intro x4

Chorus x2

Post Chorus

Chorus

Verse 1 x4

Chorus x2

Verse 1 x2

Verse Fill

Verse2 x2

Chorus x2

Bridge x4

Outro loads

Chorus

Verse 2 till endAdded by tabs-database.com and our distinguished partners

Get this song at:  amazon.com sheetmusicplus.com

Share your thoughts

0 Comments found