Otep

Otep - Emtee guitar tab

Emtee

Otep

Sevas Tra

tabbed by crazytom

deathtone@wanadoo.fr

Verse :

----------------------------------------------------------

----------------------------------------------------------

------3--2--3------3--1--0--------------------------------

-------------------------------4--3--4-------------1------

---1------------1-----------1-------------1--1--4----3----

----------------------------------------------------------

----------------------------------------

----------------------------------------

-----3-2-3----3-1-0---------------------

-----------------------4-3-4------------

---1--------1--------1--------1-4-3-2---

----------------------------------------

--------------------------------

--------------------------------

--------------4-----1-----3-----

----------------------------2---

---1---1---1-----1-----1--------

--------------------------------

Chorus :

-----------------------

-----------------------

---2-------------------

-------1---1---1---1---

-------1---1---1---1---

-------1---1---1---1---

Get this song at:  amazon.com sheetmusicplus.com

Share your thoughts

0 Comments found