Otep

Otep - Buried Alive guitar tab

Tabber: Brandon Wall (webmaster at tabs-database.com.com)

Tuning:Drop C (DAFCGC)

*This song is mainly played with a bass guitar but their is small guitar parts (aka:only

plays the verses)*

Chorus 1

|-|-------------------------------------------------------------------|

|-|-------------------------------------------------------------------|

|-|-------------------------------------------------------------------|

|-|-1-1-1-1-1-1--4-4-4-4-4-4-4-4--0--1-1-1-1-1-1--4-4-4-4-4-4-4-4-4-4-| X4

|-|-1-1-1-1-1-1--4-4-4-4-4-4-4-4--0--1-1-1-1-1-1--4-4-4-4-4-4-4-4-4-4-|

|-|-1-1-1-1-1-1--4-4-4-4-4-4-4-4--0--1-1-1-1-1-1--4-4-4-4-4-4-4-4-4-4-|

. . . . . . . . . . . . . . . . . . . . . . . . . . . . . . .

|-|-----------------|

|-|-----------------|

|-|-----------------|

|-|-1-1--4--11-11-0-| X4

|-|-1-1--4--11-11-0-|

|-|-1-1--4--11-11-0-|

Chorus 2

|-|-------------------------------------------------------------------|

|-|-------------------------------------------------------------------|

|-|-------------------------------------------------------------------|

|-|-1-1-1-1-1-1--4-4-4-4-4-4-4-4--0--1-1-1-1-1-1--4-4-4-4-4-4-4-4-4-4-| X2

|-|-1-1-1-1-1-1--4-4-4-4-4-4-4-4--0--1-1-1-1-1-1--4-4-4-4-4-4-4-4-4-4-|

|-|-1-1-1-1-1-1--4-4-4-4-4-4-4-4--0--1-1-1-1-1-1--4-4-4-4-4-4-4-4-4-4-|

. . . . . . . . . . . . . . . . . . . . . . . . . . . . . . .

|-|-----------------|

|-|-----------------|

|-|-----------------|

|-|-1-1--4--11-11-0-| X4

|-|-1-1--4--11-11-0-|

|-|-1-1--4--11-11-0-|

Ending (starts when she says "buried alive behind enemy lines")

-Quick pluck-

-play 13 times-

|-|------------------------------------------------------------------------|

|-|------------------------------------------------------------------------|

|-|------------------------------------------------------------------------|

|-|------------------------------------------------------------------------|

|-|------------------------------------------------------------------------|

|-|-0-0-0-0--3-3-3-3--2-2-2-2--5-5-5-5--4-4-4-4--7-7-7-7--6-6-6-6--5-5-5-5-|

-that wasnt so hard was it?-Added by tabs-database.com and our distinguished partners

Get this song at:  amazon.com sheetmusicplus.com

Share your thoughts

0 Comments found