Otep

Otep - Battle Ready guitar tab

Battle ready

Otep

Sevas Tra

tabbed by crazytom

deathtone@wanadoo.fr

Intro:

-------------------------

-------------------------

-------------------------

---1-x-1-x-1-x-1-x-1p0---

---1-x-1-x-1-x-1-x-1p0---

---1-x-1-x-1-x-1-x-1p0---

Verse:

-----------------------------------------

-----------------------------------------

-----------------------------------------

-----------------------------------------

-----------------------------------------

---2p1-1-2p1-1-2p1-1---2p1-1-2p1-1-0-0---

----------------------------------------------------

----------------------------------------------------

----------------------------------------------------

---2-1-1-1--2-1-1-1--2-1-1--2-1-1-1--2-1-1-1--0-0---

---2-1-1-1--2-1-1-1--2-1-1--2-1-1-1--2-1-1-1--0-0---

---2-1-1-1--2-1-1-1--2-1-1--2-1-1-1--2-1-1-1--0-0---

Chorus:

-------------------------------------------

-------------------------------------------

-------------------------------------------

---0-0-0--3-0-2-0-0-1-0-0-0--3-0-2-0-0-1---

---0-0-0--3-0-2-0-0-1-0-0-0--3-0-2-0-0-1---

---0-0-0--3-0-2-0-0-1-0-0-0--3-0-2-0-0-1---

Bridge:

----------------------------|----------------------------

----------------------------|----------------------------

----------------------------|----------------------------

----------------------------|---6-4-6-7-6-6--4-6-6-7-6---

----------------------------|---6-4-6-7-6-6--4-6-6-7-6---

---6-4-6-7-6-6--4-6-6-7-6---|---6-4-6-7-6-6--4-6-6-7-6---

Bridge 2:

-----------------------------------------|------------------------------------------

-----------------------------------------|------------------------------------------

-----------------------------------------|------------------------------------------

-----------------------------------------|-9-8-8-8--9-8-8-8-8---9-8-8-8--9-8-8-8-7--

-----------------------------------------|-9-8-8-8--9-8-8-8-8---9-8-8-8--9-8-8-8-7--

-9-8-8-8--9-8-8-8-8---9-8-8-8--9-8-8-8-7-|-9-8-8-8--9-8-8-8-8---9-8-8-8--9-8-8-8-7--

End:

-----------------------------------

-----------------------------------

-----------------------------------

---2-2-2-2-2---2-2---2-2---2-2-2---

---2-2-2-2-2---2-2---2-2---2-2-2---

---2-2-2-2-2---2-2---2-2---2-2-2---

Get this song at:  amazon.com sheetmusicplus.com

Share your thoughts

0 Comments found