Original Artist

Original Artist - Wabash Cannon Ball lead guitar tab

x = muted click h = hammer-on

p = pulloff / = slide up

pbr = pre-bend & release \ = slide down

br = bend & release bh = bend & hold

Wabash Cannon Ball Lead

Note: I believe the original was done in G/C/D and was a

fiddle tune. But this sounds great on acoustic guitar.

E----------------------------------------------------------

B---------------------------------------------------------|

G----------------2-22-----2-------------------------------|

D---------0-0-3/4-----3/4----3\2--0-----------------------|

A--0-0-0h2---------------------------2--------------------|

E-------------------------------------3-------------------|

E---------------------------------------------------------|

B---------------------------------------------------------|

G---------------------------------------------------------|

D----------2-2-4-2-2-2-----2-----2------------------------|

A--0-0-0h4-------------2h4---2h4---2br-0------------------|

E---------------------------------------------------------|

E---------------------------------------------------------|

B---------------------------------------------------------|

G-----------------2-22-----2------------------------------|

D----------0-0-3/4-----3/4----3\2--0----------------------|

A--0-0-0h2----------------------------2-------------------|

E--------------------------------------3------------------|

E---------------------------------------------------------|

B---------------------------------------------------------|

G---------------------------------------------------------|

D----------2-2-4-2--2-2-2---------0------------0----------|

A--0-0-0h4----------------4-0-2-4---------0h2p------------|

E-----------------------------------0h1/2-----------------|

Get this song at:  amazon.com sheetmusicplus.com

Share your thoughts

0 Comments found