Orange And Lemons

Orange And Lemons - Abot Kamay guitar tab

Song Name : ABOT KAMAY

Song Artist : ORANGE AND LEMONS

Tabbed By : Jan Michael Dimpas

Please Rate this..

----------------------------------

ABOT KAMAY

----------------------------------

our band : www.bustedfuse.i8.com

see me at my friendster janmichael_dimpas2004@yahoo.com

Standard Tuning: EADGBE

[Intro]

Guitar I.

e|--3--1--0----0-------|---3---1---0----0--------|

B|----------3-----3----|-------------3-----3-----|

G|---------------------|-------------------------| 2X

D|---------------------|-------------------------|

A|---------------------|-------------------------|

E|---------------------|-------------------------|

Guitar II.

C E9 C E9

e|---0000-----xxxx-----|---0000-----xxxx-----|

B|---1111-----3333-----|---1111-----3333-----|

G|---0000-----0000-----|---0000-----0000-----| 2X

D|---2222-----2222-----|---2222-----2222-----|

A|---3333-----2222-----|---3333-----2222-----|

E|---------------------|---------------------|

Verse I.

Guitar I.

e|--3--1--0----0-------|---3---1---0----0--------|

B|----------3-----3----|-------------3-----3-----|

G|---------------------|-------------------------|

D|---------------------|-------------------------|

A|---------------------|-------------------------|

E|---------------------|-------------------------|

Guitar II.

C E9 C E9

e|---0000-----xxxx-----|---0000-----xxxx-----|

B|---1111-----3333-----|---1111-----3333-----|

G|---0000-----0000-----|---0000-----0000-----|

D|---2222-----2222-----|---2222-----2222-----|

A|---3333-----2222-----|---3333-----2222-----|

E|---------------------|---------------------|

C Dm G

e|---xxxx-----1111----3333---------|

B|---1111-----3333----3333---------|

G|---0000-----2222----0000---------|

D|---2222-----0000----0000---------|

A|---3333-------------2222---------|

E|--------------------3333---------|

Nakaw tingin

Sumasabay sa hangin

Sabihin mo sa ‘kin

Anong kailangan kong gawin

Refrain:

Guitar I.

e|-----15----15----15----15-|-----15----15---15----15-----------|

B|---15----14----12----10---|---15----14---12----10-------------|

Guitar II.

C E9 Am Dm G

e|---xxxx-----1111----xxxx----1111-----3333---------|

B|---1111-----3333----1111----3333-----3333---------|

G|---0000-----2222----2222----2222-----0000---------|

D|---2222-----0000----2222----0000-----0000---------|

A|---3333-------------0000-------------2222---------|

E|-------------------------------------3333---------|

Upang malapitan, mamasdan, at mahawakan

Taglay mong kagandahan

Chorus:

Guitar I.

e|--3--1--0----0-------|---3---1---0----0--------|

B|----------3-----3----|-------------3-----3-----|

G|---------------------|-------------------------|

D|---------------------|-------------------------|

A|---------------------|-------------------------|

E|---------------------|-------------------------|

Abot kamay.... Abot kamay...

Guitar II.

C E9 C E9

e|---0000-----xxxx-----|---0000-----xxxx-----|

B|---1111-----3333-----|---1111-----3333-----|

G|---0000-----0000-----|---0000-----0000-----| 3X

D|---2222-----2222-----|---2222-----2222-----|

A|---3333-----2222-----|---3333-----2222-----|

E|---------------------|---------------------|

Abot kamay ang langit

Gayumang taglay ng awit

Abot kamay ang langit

Abot kamay ang langit

Haplos na dala ng tinig

Abot kamay ang langit

Verse 2: ( do the same pattern above )

Nais kong abutin

Kislap ng mga bituin

Sapyo ng umaga sa hardin

Anong kailangan kong gawin

Refrain: ( do the same pattern above )

Upang malapitan, mamasdan, at mahawakan

Taglay mong kagandahan

Chorus: ( do the same pattern above )

Abot kamay ang langit

Gayumang taglay ng awit

Abot kamay ang langit

Abot kamay ang langit

Haplos na dala ng tinig

Abot kamay ang langit

Outro:

Guitar II.

C E9 C E9

e|---0000-----xxxx-----|---0000-----xxxx-----|

B|---1111-----3333-----|---1111-----3333-----|

G|---0000-----0000-----|---0000-----0000-----| 2X

D|---2222-----2222-----|---2222-----2222-----|

A|---3333-----2222-----|---3333-----2222-----|

E|---------------------|---------------------|

Guitar I.

e|---------12p10--9-10-12-10-9--|-------12p10-9--7-9-7-9--------|

B|----5/8-----------------------|--5/8--------------------------|

G|------------------------------|-------------------------------|

D|------------------------------|-------------------------------|

A|------------------------------|-------------------------------|

E|------------------------------|-------------------------------|

e|---------12p10--9-10-12-10-9--|-------12p10-9--7-9-7-9--------|

B|----5/8-----------------------|--5/8-------------------5------|

G|------------------------------|-------------------------------|

D|------------------------------|-------------------------------|

A|------------------------------|-------------------------------|

E|------------------------------|-------------------------------|

end with this chords:

C

e|---0--|

B|---1--|

G|---0--|

D|---2--|

A|---3--|

E|------|

Please Rate! Thanks

Get this song at:  amazon.com sheetmusicplus.com

Share your thoughts

0 Comments found