Operation Ivy

Operation Ivy - Bombshell Bass guitar tab

This might sound a bit off at first but trust me, it's right. You're gonna want to play

one with a pick. Or, I do. I think it makes it easier.

Intro

G-----------------|

D-0---------------| x2

A-----0-0-2-3-4---|

E---3-------------|

Verse

G-----------------------------------------------------------|

D---------------------4-5-------------------7-7-5-5-4-4-----|

A-5-4-2------------4-7---7-4-5-4-2---------------------7-7--|

E-------5-3-2-3-4-5----------------5-3-2-3-4----------------|

Chorus

G--------------|

D--4-5-7-5-4---| repeat a few times during "oh yeah, shes a bombshell"

A-5------------|

E--------------|

thats about it. questions/comments/corrections/requestss contact me through UG.Added by tabs-database.com and our distinguished partners

Get this song at:  amazon.com sheetmusicplus.com

Share your thoughts

0 Comments found