Operation Ivy

Operation Ivy - Bank Shot guitar tab

BANKSHOT-BY:OPERATION IVY

this song is really long so i wrote out everything u go from start to finish no going back

up and down to

the chorus, its all straight through:

e------------------------------------------------------

B------------------------------------------------------

G------------------------------------------------------

D--5--3--2----------5--3--2-------5--3--2--------------

A-------------5---------------5--------------5--3------

E------------------------------------------------------

e------------------------------------------------------

B------------------------------------------------------

G------------------------------------------------------

D----------3--3--2---------------------3--3--2---------

A--5-----------------5--3--3--5------------------5--3--

E------3---------------------------3-------------------

e----------------------------------------------

B----------------------------------------------

G----------------------------------------------

D---5--2------2---5---2------------3-----------

A----------5--------------5---3----------------

E----------------------------------------------

e-----------------------------------------------

B-----------------------------------------------

G-----------------------------3--2--------------

D---5--2------2---5---2---------------3--2------

A----------5--------------5---------------------

E-----------------------------------------------

e----------------------------------------------

B----------------------------------------------

G----------------------------------------------

D---5--2------2---5---2------------3-----------

A----------5--------------5---3----------------

E----------------------------------------------

e------------------------------------------------

B------------------------------------------------

G------------------------------------------------

D---5--2------2---5---2-----------3--5-----------

A----------5--------------5---3----------5----3--

E------------------------------------------------

e----------------------------------------------------------------

B----------------------------------------------------------------

G----------------------------------------------------------------

D----------3--3--2-------------------------------3--3--2---------

A--5-----------------5--3------------3--5------------------5--3--

E------3-------------------------------------3-------------------

e----------------------------------------------

B----------------------------------------------

G----------------------------------------------

D---5--2------2---5---2------------3-----------

A----------5--------------5---3----------------

E----------------------------------------------

e----------------------------------------------

B-----------------------------------------------

G-----------------------------3--2--------------

D---5--2------2---5---2---------------3--2------

A----------5--------------5---------------------

E-----------------------------------------------

e----------------------------------------------

B----------------------------------------------

G----------------------------------------------

D---5--2------2---5---2------------3-----------

A----------5--------------5---3----------------

E----------------------------------------------

e---------------------------------------------

B---------------------------------------------

G---------------------------------------4-----

D---5--2------2---5---2-----------3--5--------

A----------5--------------5---3---------------

E---------------------------------------------

e------------------------------------------------------

B---8---12---------------8--------3~~~-------1--1------

G---9--------12----------9--------4~~~-------2--2------

D--10-------------12----10--------5~~~-------3--3------

A--10-------------------10--------5~~~-------3--3------

E---8--------------------8--------3~~~-------1--1------

e---8------------------------------------7~~~---------------

B------8-----------6--6--6---------------8~~~-------1--1----

G---------7b9---5-----------8---5--------7~~~-------2--2----

D-----------------------------------5----5~~~-------3--3----

A---------------------------------------------------3--3----

E---------------------------------------------------1--1----

e--------------------------------------7~~~~~~--------------

B---6---------------6--------------------8~~~~----8---1--1--

G--------8--5--8--------8--5--8--8---------7~~----7---2--2--

D------------------------------------9~~~~~~~~----9---3--3--

A-----------------------------------------------------3--3--

E-----------------------------------------------------1--1--

e--8--11--8---------------------

B--------------11--8------------

G----------------------10---8---

D-------------------------------

A-------------------------------

E-------------------------------

e------------------------------------7~~-----------

B------------------------------------8~~-----1--1--

G---11r10--11r10--10--8--------------7~~-----2--2--

D--------------------------10------9~~~~-----3--3--

A--------------------------------------------3--3--

E--------------------------------------------1--1--

e----------------------------------------------------------------

B----------------------------------------------------------------

G----------------------------------------------------------------

D-----------3--3--2-------------------------------3--3--2--------

A--3--5--------------5--3-------------3--5-----------------5--3--

E--------3-------------------------------------3-----------------

e--------------------------------------------------------

B--------------------------------------------------------

G--------------------------------------------------------

D--3--3--3--2-----3--3--3--2---------3--3--3--2----------

A--------------5---------------5-----------------5--3~~--

E--------------------------------------------------------

-Josh Slone

Get this song at:  amazon.com sheetmusicplus.com

Share your thoughts

0 Comments found