Operation Ivy

The Crowd 100% Perfect Bass Tabs



More from Operation Ivy

Operation Ivy Tabs
Operation Ivy Chords
Operation Ivy Bass
Operation Ivy Lyrics




im positive this is 100% correct


INTRO
G-------------------3-5H3-5H3---------------------9-77-----------------
D-----2-4H2-4H2---5---------------3-5H3-5H3-----9------9-7-------------
A---4-----------3---------------5-----------5-7------------99-88-77-55-
E-2---------------------------3----------------------------------------

G-77-55---------------------99-77-------
D-------77-55-----5-5H7-5H7-------99-77-
A---------------7-----------------------
E-------------5-------------------------

MAIN RIFF
G--------------------------------------
D---------------------------5-7-5------
A-99999-7-55555-7-00000-5-7-------7-55-
E--------------------------------------

VERSE
G-------------------------------------
D-------------------------------------
A----------55555555----------77777777-
E-22222222----------55555555----------

CHORUS
G--------------
D--------------
A---45---5-777-
E-2----5-------



Get this song at amazon.com      Ebay     Ringtones Ringtones  


Learn to play: Songwriting, Piano, Harmonica, Guitar
More Operation Ivy lyrics available at Muzikum

Related Operation Ivy Bass Tabs

The Crowd bass
Plea For Peace bass
Here We Go Again bass
Missionary bass
Yellin In My Ear bass
Troublebound bass
Sarcastic bass
Jaded bass
Officer bass
Gonna Find You bass
Sleep Long bass
These Boots Are Made For Walking bass
Vulnerability bass
Freeze Up bass
Face That Screams bass
Hedgecore bass
Bombshell bass
My Life bass
Uncertain bass
Oi Skinhead bass


Guitar Tabs









All tabs are property and copyright of their owners. All tabs provided for educational purposes only. Privacy Policy, DMCA