Offspring

Lapd Bass Tabs



More from Offspring

Offspring Tabs
Offspring Chords
Offspring Bass
Offspring Lyrics

+++++++++++++++++++++++++++

| The Offspring- L.A.P.D. |

+++++++++++++++++++++++++++



Tuning: EADG



Intro

1.

G|---------------------------------------------------------------|

D|---------------------------------------------------------------|

A|-222-2-22222-2-22222-2-22222-2-22222-2-22222-2-22222-2-22222-2-|

E|---------------------------------------------------------------|



2.

G|--------------------------------------------------------|

D|--------------------------------------------------------|

A|-2~----33-000--2~----33-000--2~----33-000--2~----33-000-|

E|--------------------------------------------------------|



Verse

"When cops are taking care..."

3.

G|---------------------------------------------------------222-|

D|-------------------------------------------------------------|

A|-2222222-33-000-2222222-33-000-2222222-33-000-2222222-33-----|--x2

E|-------------------------------------------------------------|



Chorus

"Beat all the niggers..." *No hard feelings on that...

4.

G|-44-33-22---------44-33-22---------44-33-22----------------------------|

D|----------22-000-----------22-000-----------22-000---------------------|

A|---------------------------------------------------0000-5555-2222-2222-|

E|-----------------------------------------------------------------------|



Outro

5.

G|-------------------------------|

D|-------------------------------|

A|-2222222-33-000-2222222-33-000-|

E|-------------------------------|



Verse

"The city of L.A. feels like a prison..."

6.

G|---------------------------------------------------------222-|

D|-------------------------------------------------------------|

A|-2222222-33-000-2222222-33-000-2222222-33-000-2222222-33-----|

E|-------------------------------------------------------------|



Chorus

"Beat all the white trash..."

7.

G|-44-33-22---------44-33-22---------44-33-22----------------------------|

D|----------22-000-----------22-000-----------22-000---------------------|

A|---------------------------------------------------0000-5555-2222-2222-|

E|-----------------------------------------------------------------------|



Outro

8.

G|-------------------------------|

D|-------------------------------|

A|-2222222-33-000-2222222-33-000-|--x6

E|-------------------------------|



9.

G|-44-33-22---------44-33-22---------44-33-22----------------------------|

D|----------22-000-----------22-000-----------22-000---------------------|

A|---------------------------------------------------0000-5555-2222-2222-|

E|-----------------------------------------------------------------------|



10.

G|-------------------------------|

D|-------------------------------|

A|-2222222-33-000-2222222-33-000-|

E|-------------------------------|



Verse

11.

G|---------------------------------------------------------222-|

D|-------------------------------------------------------------|

A|-2222222-33-000-2222222-33-000-2222222-33-000-2222222-33-----|--x2

E|-------------------------------------------------------------|



Chorus

"Beat all the niggers..."

12.

G|-44-33-22---------44-33-22---------44-33-22----------------------------|

D|----------22-000-----------22-000-----------22-000---------------------|

A|---------------------------------------------------0000-5555-2222-2222-|

E|-----------------------------------------------------------------------|



"L.A.P.D!"

13.

G|------------------------------------------|

D|------------------------------------------|

A|-0000-5555-2222-2222--0000-5555-2222-2222-|

E|------------------------------------------|



Lyrics:



When cops are taking care of business I can understand

But the L.A. story's gone way out of hand

Their acts of aggression, they say they're justified

But it seems an obsession has started from the inside

They're shooting anyone who even tries to run

They're shooting little kids with toy guns

Take it to a jury but they don't give a damn

Because the one who tells the truth is always the policeman



Beat all the niggers

Beat whoever you see

Don't need a reason

(We're) L.A.P.D.



The city of L.A. feels like a prison

With helicopters overhead and bullets whizzing by

Martial law ain't no solution

Police brutality's just social pollution



Beat all the white trash

Beat whoever you see

Don't need a reason

(We're) L.A.P.D.



They say they're keeping the peace

But I'm not buying it because a billy club ain't much of a pacifier

"Protecting your freedom"

Now that's just a lie

It's an excuse for power that's more like an alibi

Law and order doesn't really matter

When you're the one getting bruised and battered

You take it to a jury, they'll throw it in your face

Because justice in L.A. comes in a can of mace



+++++++++++++++++++++++++++++++++

| RaiLeff |

| webmaster at tabs-database.com.com |

+++++++++++++++++++++++++++++++++Added by tabs-database.com and our distinguished partners
Get this song at amazon.com      Ebay     Ringtones Ringtones  


Learn to play: Songwriting, Piano, Harmonica, Guitar

Related Offspring Tabs

Self Esteem Bass tabs
Conspiracy Of One tabs
Have You Ever [live Woodstock 99] tabs
Long Way Home tabs
Demons tabs
Americana Right tabs
Original Prankster Intro tabs
Kick Him When Hes Down Bass tabs
Its Cool To Hate tabs
Livin In Chaos tabs
Staring At The Sun tabs
She's Got Issues tabs
Killboy Powerhead Bass tabs
Denial Revisited tabs
Gotta Get Away tabs
Pay The Man tabs
Gone Away tabs
Pretty Fly F4r A White Guy tabs
Defy You tabs
Self Esteem tabs


Guitar Tabs









All tabs are property and copyright of their owners. All tabs provided for educational purposes only. Privacy Policy, DMCA