Offspring

Got To Get Away Tabs



More from Offspring

Offspring Tabs
Offspring Chords
Offspring Bass
Offspring Lyrics



Gotta get away
Guitarist:noodles
Album:smash



Intro and break


--10-10--3330---10-10-3350-----------------------
---------3320---------3330-----------------------
-------------------------------------------------
-------------------------------------------------
-------------------------------------------------
-------------------------------------------------


2nd intro


------------------------------------------------
------------------------------------------------
---77---77---99--99--1212--14-9-10-9-10-9-------
---77---77---99--99--1212--14-9-10-9-10-9-------
---55---55---77--77--1010--12-7--8-7--8-7-------
-00---00---00--00--00----00---------------------

verses are the same thing except the 0ís are palm muted


chorus


------------------------------------------------
------------------------------------------------
------5555------7777----------------------------
-2222-5555-5555-7777----------------------------
-2222-3333-5555-5555----------------------------
-0000------3333---------------------------------

thatís about it enjoy alright!! This is the corrected version sorry about the first one!!!


Get this song at amazon.com      Ebay     Ringtones Ringtones  


Learn to play: Songwriting, Piano, Harmonica, Guitar

Related Offspring Tabs

Disclaimer tabs
Want You Bad (mark) tabs
Pretty Fly tabs
Americana Intro tabs
The Kids Arent Alright Intro tabs
Smash tabs
Baghdad tabs
Defy You Intro tabs
Stairing At The Sun tabs
Million Miles Away tabs
Demons tabs
The Noose tabs
Feelings tabs
Cum Out Swinging tabs
Cool To Hate tabs
The Whole Smash Album 100% tabs
Ixnay On The Hombre tabs
Dirty Magic G tabs
Not The One tabs
Pretty Fly For A White Guy tabs


Guitar Tabs









All tabs are property and copyright of their owners. All tabs provided for educational purposes only. Privacy Policy, DMCA