Of Montreal

Of Montreal - Lysergic Bliss Bass guitar tab

-------------------------------------------------------------------------------

Lysergic Bliss - Of Montreal

-------------------------------------------------------------------------------

Tabbed By : b.p.

e-mail: webmaster at tabs-database.com.com

great song

wicked fun to play

Tuning:standard

G|-------9-----|-------------------------------------------------------------|

D|-----11-11---|-------------------------------------------------------------|

A|----9--------|--7----5-5-5-4-5-7-7-5-4-------------------------------------|

E|-------------|-------------------------7-----------------------------------|

x?

G|----11p9----14---9h11p9----------------------------------------------------|

D|------------------------11-11p9h11p9---------------------------------------|

A|--0------0-----------------------------------------------------------------|

E|---------------------------------------------------------------------------|

G|-|---------|-----------|---------|-----------------------------------------|

D|-|-------4-|--7---4----|-----7-9-|---9-7-----------------------------------|

A|-|---4-7---|--------7--|---9-----|-------9---------------------------------|

E|-|-5-------|----5------|-7-------|-7---------------------------------------|

x3 x3

G|-|---------|-----------|---------[-------6-]--------------9-6--------------|

D|-|-------4-|--7---4----|-----7-9-[---6-9---]------7-9---------9------------|

A|-|---4-7---|--------7--|---9-----[-7-------]----9-------7------------------|

E|-|-5-------|----5------|-7-------[---------]--7----------------------------|

x3 ***

sometimes played as:

G|--9-----6---------

D|----6-9-----------

G|-|---------|-----------|---------|-----------------------------------------|

D|-|-------4-|--7---4----|-----7-9-|---9-7-----------------------------------|

A|-|---4-7---|--------7--|---9-----|-------9---------------------------------|

E|-|-5-------|----5------|-7-------|-7---------------------------------------|

| x3 | | x3 |

G|-|---------|----------------------------6---------------9-6----------------|

D|-|-------4-|--7---4---------7-9-----6-9---------7-9---------9--------------|

A|-|---4-7---|--------7-----9-------7-----------9-------7--------------------|

E|-|-5-------|----5-------7-------------------7------------------------------|

| x3 |

now the fun part

the timing is sorta tricky

G|---------9h11p9-------------------11-9-----11\\14/11--11\\14/11--14\\16/14/13-|

D|-------9-------11-12-11h12p11--11-----9------------------------------------|

A|--11-12----------------------12--------9-----------------------------------|

E|-9---------------------------------------7---------------------------------|

G|----------------------------14---------------------------------------------|

D|-7-7-----7-7-----7-7----------16-14----------------------------------------|

A|-----9-7-----9-7-----9-7-----------16-14-----------------------------------|

E|---------------------------------------------------------------------------|

G|-|---------|-----------|---------|-----------------------------------------|

D|-|-------4-|--7---4----|-----7-9-|---9-7-----------------------------------|

A|-|---4-7---|--------7--|---9-----|-------9---------------------------------|

E|-|-5-------|----5------|-7-------|-7---------------------------------------|

| x3 | | x3 |

G|-|---------|---------------------------6---------------9-6-----------------|

D|-|-------4-|--7---4---------7-9----6-9---------7-9---------9---------------|

A|-|---4-7---|--------7-----9------7-----------9-------7---------------------|

E|-|-5-------|----5-------7------------------7-------------------------------|

| x3 |

G|-|---------|-----------|---------|-----------------------------------------|

D|-|-------4-|--7---4----|-----9-7-|-----------------------------------------|

A|-|---4-7---|--------7--|---------|-----------------------------------------|

E|-|-5-------|----5------|-7-7-----|-----------------------------------------|

| x3 | | x4 |

G|-|---------|-----------------------------13--------------------------------|

D|-|-------4-|--7---4---------6----9-7--14-----------------------------------|

A|-|---4-7---|--------7-----5---7--------------------------------------------|

E|-|-5-------|----5-------7--------------------------------------------------|

| x3 |

G|---------9h11p9-------------------11-9-------------------------------------|

D|-------9-------11-12-11h12p11--11-----9------------------------------------|

A|--11-12----------------------12--------9---9---5--8887---------------------|

E|-9---------------------------------------7---7-----------------------------|

after the pause and crazy harmonies

G|--------------------------------------------------------2------------------|

D|--------------------4-2-4-------------------4-2-4---2-4--------------------|

A|----4-2-4---4-2-4-0---------4-2-4---4-2-4-0-------4------------------------|

E|--2-------2---------------2-------2----------------------------------------|

i didnt write out the rest of this last part. its basically the same as above

but the order is changed up a tad.

| / slide up

| \\ slide down

| h hammer-on

| p pull-off

| ~ vibrato

| + harmonic

| x Mute note

=============================================================================== Added by tabs-database.com and our distinguished partners

Get this song at:  amazon.com sheetmusicplus.com

Share your thoughts

0 Comments found