No Use for a Name

No Use for a Name - Wood guitar tab

--------------------------------------------------------------------------------

WOOD - No Use For A Name

--------------------------------------------------------------------------------

By: Rambozo

e-|-------------------------------------------------------------------------|

B-|----------------------------------------------------------------------13-|

G-|----14-12----14-12----10-12-13-12-10-12-10----14-12----14-12----12-14----|

D-|-12-------11-------10----------------------12-------11-------10----------|

A-|-------------------------------------------------------------------------|

E-|-------------------------------------------------------------------------|

e-|-----------------------------------------------------------------

B-|-----------------------------------------------------------------

G-|-----------------------------------------------------------------

D-|-7-7-7-7-7-7-7-7-6-6-6-6-6-6-6-6-5-5-5-5-5-5-5-5-----------------

A-|-5-5-5-5-5-5-5-5-4-4-4-4-4-4-4-4-3-3-3-3-3-3-3-3-5-5-5-5-5-5-5-5-

E-|-------------------------------------------------3-3-3-3-3-3-3-3-

e-|-----------------------------------------------------------------

B-|-----------------------------------------------------------------

G-|-----------------------------------------------------------------

D-|-7-7-7-7-7-7-7-7-6-6-6-6-6-6-6-6-5-5-5-5-5-5-5-5-----------------

A-|-5-5-5-5-5-5-5-5-4-4-4-4-4-4-4-4-3-3-3-3-3-3-3-3-5-5-5-5-5-5-5-5-

E-|-------------------------------------------------3-3-3-3-3-3-3-3-

e-|-----------------------------------------------------------------

B-|-----------------------------------------------------------------

G-|-----------------------------------------------------------------

D-|-7-7-7-7-7-7-7-7-6-6-6-6-6-6-6-6-5-5-5-5-5-5-5-5-----------------

A-|-5-5-5-5-5-5-5-5-4-4-4-4-4-4-4-4-3-3-3-3-3-3-3-3-5-5-5-5-5-5-5-5-

E-|-------------------------------------------------3-3-3-3-3-3-3-3-

e-|-----------------------------------------------------------------|

B-|-----------------------------------------------------------------|

G-|-----------------------------------------------------------------|

D-|-7-7-7-7-7-7-7-7-6-6-6-6-6-6-6-6-5-5-5-5-5-5-5-5-----------------|

A-|-5-5-5-5-5-5-5-5-4-4-4-4-4-4-4-4-3-3-3-3-3-3-3-3-5-5-5-5-5-5-5-5-|

E-|-------------------------------------------------3-3-3-3-3-3-3-3-|

e-|-----------------------------------------------------------------

B-|-----------------------------------------------------------------

G-|-----------------------------------------------------------------

D-|-5-5-5-5-4-4-4-4-------------------------------------------------

A-|-3-3-3-3-2-2-2-2-7-7-7-7-7-7-7-7-3-3-3-3-5-5-5-5-7-7-7-7-7-7-7-7-

E-|-----------------5-5-5-5-5-5-5-5-1-1-1-1-3-3-3-3-5-5-5-5-5-5-5-5-

e-|---------------------------------|

B-|---------------------------------|

G-|---------------------------------|

D-|-5-5-5-5-4-4-4-4-----------------|

A-|-3-3-3-3-2-2-2-2-7-7-7-7-7-7-7-7-|

E-|-----------------5-5-5-5-5-5-5-5-|

e-|-------------------------------------------------------------------------|

B-|----------------------------------------------------------------------13-|

G-|----14-12----14-12----10-12-13-12-10-12-10----14-12----14-12----12-14----|

D-|-12-------11-------10----------------------12-------11-------10----------|

A-|-------------------------------------------------------------------------|

E-|-------------------------------------------------------------------------|

e-|-----------------------------------------------------------------

B-|-----------------------------------------------------------------

G-|-----------------------------------------------------------------

D-|-7-7-7-7-7-7-7-7-6-6-6-6-6-6-6-6-5-5-5-5-5-5-5-5-----------------

A-|-5-5-5-5-5-5-5-5-4-4-4-4-4-4-4-4-3-3-3-3-3-3-3-3-5-5-5-5-5-5-5-5-

E-|-------------------------------------------------3-3-3-3-3-3-3-3-

e-|-----------------------------------------------------------------

B-|-----------------------------------------------------------------

G-|-----------------------------------------------------------------

D-|-7-7-7-7-7-7-7-7-6-6-6-6-6-6-6-6-5-5-5-5-5-5-5-5-----------------

A-|-5-5-5-5-5-5-5-5-4-4-4-4-4-4-4-4-3-3-3-3-3-3-3-3-5-5-5-5-5-5-5-5-

E-|-------------------------------------------------3-3-3-3-3-3-3-3-

e-|-----------------------------------------------------------------

B-|-----------------------------------------------------------------

G-|-----------------------------------------------------------------

D-|-7-7-7-7-7-7-7-7-6-6-6-6-6-6-6-6-5-5-5-5-5-5-5-5-----------------

A-|-5-5-5-5-5-5-5-5-4-4-4-4-4-4-4-4-3-3-3-3-3-3-3-3-5-5-5-5-5-5-5-5-

E-|-------------------------------------------------3-3-3-3-3-3-3-3-

e-|-----------------------------------------------------------------|

B-|-----------------------------------------------------------------|

G-|-----------------------------------------------------------------|

D-|-7-7-7-7-7-7-7-7-6-6-6-6-6-6-6-6-5-5-5-5-5-5-5-5-----------------|

A-|-5-5-5-5-5-5-5-5-4-4-4-4-4-4-4-4-3-3-3-3-3-3-3-3-5-5-5-5-5-5-5-5-|

E-|-------------------------------------------------3-3-3-3-3-3-3-3-|

e-|-----------------------------------------------------------------

B-|-----------------------------------------------------------------

G-|-----------------------------------------------------------------

D-|-5-5-5-5-4-4-4-4-------------------------------------------------

A-|-3-3-3-3-2-2-2-2-7-7-7-7-7-7-7-7-3-3-3-3-5-5-5-5-7-7-7-7-7-7-7-7-

E-|-----------------5-5-5-5-5-5-5-5-1-1-1-1-3-3-3-3-5-5-5-5-5-5-5-5-

e-|-------------------|

B-|-------------------|

G-|-------------------|

D-|-5-5-5-5-4-4-4-4---|

A-|-3-3-3-3-2-2-2-2-7-|

E-|-----------------5-|

=====================================================================

Get this song at:  amazon.com sheetmusicplus.com

Share your thoughts

0 Comments found