No Use for a Name

No Use for a Name - Why Doesnt Anybody Like Me guitar tab

WHY DOESN'T ANYBODY LIKE ME? - No Use For A Name

by:jimmies_locco@hotmail.com

INTRO

e|--------------------------|

B|--------------------------|

G|----8-8-8-9-8-6-4-4-4-4-6-|

D|--------------------------|

A|----6-6-6-7-6-4-2-2-2-2-4-|

E|--------------------------|

VERSE

B5 F#5 G#5 D#5 E5 C#/E# F#5

e|---------------------------------------|

B|---------------------------------------|

G|---------------------------------------|

D|--------11-----13--------9---11----11--|

A|---9-----9-----11---13---7----8-----9--|

E|---7----------------11-----------------|

B5 F#5 G#5 D#5 E5 C#/E# F#5 G#5/F#5 E5 F#5 G#5 A5

e|-----------------------------------------------------------------|

B|-----------------------------------------------------------------|

G|-----------------------------------------------------------------|

D|--------11---13----------9---11-----11---------------------------|

A|---9-----9---11----13----7----8------9---6--4----2----4----6---7-|

E|---7---------------11--------------------4--2----0----2----4---5-|

CHORUS:

e|-------------------------------------------|

B|-------------------------------------------|

G|-------------------------------------------|

D|-----------9-------11-----------------6----|

A|--9---9----7---9---9--9----9---7---6--4--4-|

E|--7---6--------7------7----6---5---4-----2-|

Get this song at:  amazon.com sheetmusicplus.com

Share your thoughts

0 Comments found