No Use for a Name

No Use for a Name - Why Doesnt Anybody Like Me bass tab

FTH80:G D A E ; Generated by Fast Tab, do not erase

====================

>From : Matt.Fritz

Artist : No Use For A Name

Bass Performance: Why Doesn't Anybody Like Me

Strings: E ,A ,D ,G

INTRO

G ----------------------------------------------------

D ----------------------------------------------------

A --5--5--5--5--3--3--3--3--5--5--5--5--2--2--2--2----

E ----------------------------------------------------

VERSES

G -------------------------------------------------------------------------------

D -------------------------------------------------------------------------------

A -----5--5--5--5--5--5--5--5--3--3--3--3--3--3--3--3--5--5--5--5--5--5--5--5--2-

E -------------------------------------------------------------------------------

G ------------------------

D ------------------------

A --2--2--2--2--2--2--2---

E ------------------------

PRE-CHOURS

G -------------------------------------------------------------------------------

D -------------------------------------------------------------------------------

A -----5--5--5--5--5--5--5--5--5--5--5--5--5--5--5--5--5--5--5--5--5--5--5--5----

E -------------------------------------------------------------------------------

CHOURS

G -------------------------------------------------------------------------------

D -------------------------------------------------------------------------------

A -----2--2--2--2--2--2--2--2--2--2--2--2--2--2--2--2--5--5--5--5--5--5--5--5--5-

E -------------------------------------------------------------------------------

G -------------------------------------------------------------------------------

D -------------------------------------------------------------------------------

A --5--5--5--5--5--5--5--3--3--3--3--3--3--3--3--3--3--3--3--3--3--3--3--1--1--1-

E -------------------------------------------------------------------------------

G ---------------------------------------

D ---------------------------------------

A --1--1--1--1--1--1--1--1--1--1--1--1--1

E ---------------------------------------

>

Get this song at:  amazon.com sheetmusicplus.com

Share your thoughts

0 Comments found