No Use for a Name

No Use for a Name - Why Doesn Anybody Like Me guitar tab

This is my first tab. So,please give some advice....

Intro :

Guitar 1

D|---------------------------------|

A|--7-7-7-8-7-5-----7-7-7-8-7-5----|

E|--------------8---------------8--|

D|--5-5-5-7-5-------5-5-5-7-5------|

A|------------8-7-------------8-7--|

E|---------------------------------|

Guitar 2

G|--5------------------------------|

D|--5------5-------7-------3-------| 2x

E|--3------5-------7-------3-------|

A|---------3-------5-------1-------|

Verse :

G|--5-----------9---10---11---12---|

D|--5---5---7---9---10---11---12---| 2x

A|--3---5---7---7----8----9---10---| (1st part : P.m/2nd Part : clear)

E|------3---5----------------------|

Pre Chorus :

G|------------|---------------|

D|--7--5--3---|--3--5--7--8---|

A|--7--5--3---|--3--5--7--8---|

E|--5--3--1---|--1--3--5--6---|

[ p.m ]

Chorus :

G|---------10--9--7-----------------7--5--4--|

D|--10--9--10--9--7----10--9--8--7--7--5--4--|

A|--10--9---8--7--5----10--9--8--7--5--3--2--|

E|---8--7---------------8--7--6--5-----------|

REPEAT INTRO

REPEAT VERSE

REPEAT PRE CHORUS

REPEAT CHORUS

Solo:

Guitar 1

e|----8---15---12---8---13---12---10---8---13---|

B|----------------------------------------------|

G|----------------------------------------------|

Guitar 2

G|--------------------------------|

D|---7---5---3---7---5---3---5----|

A|---7---5---3---7---5---3---5----|

E|---5---3---1---5---3---1---3----|

Chorus :

G|---------10--9--7-----------------7--5--4--|

D|--10--9--10--9--7----10--9--8--7--7--5--4--|

A|--10--9---8--7--5----10--9--8--7--5--3--2--|

E|---8--7---------------8--7--6--5-----------|

(p.m this part)

REPEAT INTRO

end

Thats all

Get this song at:  amazon.com sheetmusicplus.com

Share your thoughts

0 Comments found