No Use for a Name

No Use for a Name - Weirdo guitar tab

-------------------------------------------------------------------------------

WEIRDO - No Use For A Name

-------------------------------------------------------------------------------

By: Jeff Munt

e-|-------------------------------------------------------------------------

B-|-------------------------------------------------------------------------

G-|-------------------------------------------------------------------------

D-|-------8-8-9-------8-8-9-------8-8-9-------8-8-9-------8-8-9-------8-8-9-

A-|-7-8-9-6-6-7-7-8-9-6-6-7-7-8-9-6-6-7-7-8-9-6-6-7-7-8-9-6-6-7-7-8-9-6-6-7-

E-|-5-6-7-------5-6-7-------5-6-7-------5-6-7-------5-6-7-------5-6-7-------

e-|-------------------------------------------------------------------------

B-|-------------------------------------------------------------------------

G-|-------------------------------------------------------------------------

D-|-------8-8-9-------8-8-9-------8-8-9-------8-8-9-------8-8-9-------8-8-9-

A-|-7-8-9-6-6-7-7-8-9-6-6-7-7-8-9-6-6-7-7-8-9-6-6-7-7-8-9-6-6-7-7-8-9-6-6-7-

E-|-5-6-7-------5-6-7-------5-6-7-------5-6-7-------5-6-7-------5-6-7-------

e-|-------------------------------------------------|-----------------|

B-|-------------------------------------------------|-----------------|

G-|-------------------------------------------------|-----------------|

D-|-------8-8-9-------8-8-9-------8-8-9-------8-8-9-|-----------------|

A-|-7-8-9-6-6-7-7-8-9-6-6-7-7-8-9-6-6-7-7-8-9-6-6-7-|-7-6-5-6-7-6-5-6-|

E-|-5-6-7-------5-6-7-------5-6-7-------5-6-7-------|-----------------|

e-|-------------------------------------------------------------------------

B-|-------------------------------------------------------------------------

G-|-------------------------------------------------------------------------

D-|-------8-8-9-------8-8-9-------8-8-9-------8-8-9-------8-8-9-------8-8-9-

A-|-7-8-9-6-6-7-7-8-9-6-6-7-7-8-9-6-6-7-7-8-9-6-6-7-7-8-9-6-6-7-7-8-9-6-6-7-

E-|-5-6-7-------5-6-7-------5-6-7-------5-6-7-------5-6-7-------5-6-7-------

e-|-------------------------------------------------------------------------

B-|-------------------------------------------------------------------------

G-|-------------------------------------------------------------------------

D-|-------8-8-9-------8-8-9-------8-8-9-------8-8-9-------8-8-9-------8-8-9-

A-|-7-8-9-6-6-7-7-8-9-6-6-7-7-8-9-6-6-7-7-8-9-6-6-7-7-8-9-6-6-7-7-8-9-6-6-7-

E-|-5-6-7-------5-6-7-------5-6-7-------5-6-7-------5-6-7-------5-6-7-------

e-|-------------------------------------------------|-----------------|

B-|-------------------------------------------------|-----------------|

G-|-------------------------------------------------|-----------------|

D-|-------8-8-9-------8-8-9-------8-8-9-------8-8-9-|-----------------|

A-|-7-8-9-6-6-7-7-8-9-6-6-7-7-8-9-6-6-7-7-8-9-6-6-7-|-7-6-5-6-7-6-5-6-|

E-|-5-6-7-------5-6-7-------5-6-7-------5-6-7-------|-----------------|

e-|-----------------------------------------------------------------

B-|-----------------------------------------------------------------

G-|-----------------------------------------------------------------

D-|-----5-5-5-5-8-8-----5-5-6-6-6-6-----5-5-5-5-8-8-----5-5-6-6-6-6-

A-|-7-7-3-3-3-3-6-6-7-7-3-3-4-4-4-4-7-7-3-3-3-3-6-6-7-7-3-3-4-4-4-4-

E-|-5-5-------------5-5-------------5-5-------------5-5-------------

e-|-----------------------------------------------------------------|

B-|-----------------------------------------------------------------|

G-|-----------------------------------------------------------------|

D-|-----5-5-5-5-8-8-----5-5-6-6-6-6-----5-5-5-5-8-8-----5-5-6-6-6-6-|

A-|-7-7-3-3-3-3-6-6-7-7-3-3-4-4-4-4-7-7-3-3-3-3-6-6-7-7-3-3-4-4-4-4-|

E-|-5-5-------------5-5-------------5-5-------------5-5-------------|

e-|---------------------------|------------------------------------------

B-|---------------------------|------------------------------------------

G-|---------------------------|------------------------------------------

D-|---------------------------|------------------------------------------

A-|-x-x-x-x-x-x-x-x-x-x-x-x-2-|-7--7-7-7-7-7-7-7-7-10-10-10-10-9-9-10-10-

E-|-x-x-x-x-x-x-x-x-x-x-x-x-0-|-5--5-5-5-5-5-5-5-5--8--8--8--8-7-7--8--8-

e-|-------------------------------------------------------------------------

B-|-------------------------------------------------------------------------

G-|-------------------------------------------------------------------------

D-|-------------------------------------------------------------------------

A-|-12-12-12-12-10-10-9-9-7-7-7-7-7-7-7-7-10-10-10-10-9-9-10-10-12-12-12-12-

E-|-10-10-10-10--8--8-7-7-5-5-5-5-5-5-5-5--8--8--8--8-7-7--8--8-10-10-10-10-

e-|-----------------------------------------------------------------------

B-|-----------------------------------------------------------------------

G-|-----------------------------------------------------------------------

D-|-----------------------------------------------------------------------

A-|-10-10-9-9-7-7-7-7-7-7-7-7-10-10-10-10-9-9-10-10-12-12-12-12-10-10-9-9-

E-|--8--8-7-7-5-5-5-5-5-5-5-5--8--8--8--8-7-7--8--8-10-10-10-10--8--8-7-7-

e-|----------------------------------------------------------------------|

B-|----------------------------------------------------------------------|

G-|----------------------------------------------------------------------|

D-|---------------------------------------------------12-12-12-11-11-11--|

A-|-7-7-7-7-7-7-7-7-10-10-10-10-9-9-10-10-12-12-12-12-10-10-10--9--9--9--|

E-|-5-5-5-5-5-5-5-5--8--8--8--8-7-7--8--8-10-10-10-10--------------------|

e-|-------------------------------------------------------------------------

B-|-------------------------------------------------------------------------

G-|-------------------------------------------------------------------------

D-|-9-9-9-9-7-7-7-7---------------------9-9-9-9-7-7-7-7---------------------

A-|-7-7-7-7-5-5-5-5-10-10-10-10-7-7-7-7-7-7-7-7-5-5-5-5-10-10-10-10-7-7-7-7-

E-|------------------8--8--8--8-5-5-5-5------------------8--8--8--8-5-5-5-5-

e-|-------------------------------------------------------------------------|

B-|-------------------------------------------------------------------------|

G-|-------------------------------------------------------------------------|

D-|-9-9-9-9-7-7-7-7---------------------9-9-9-9-7-7-7-7---------------------|

A-|-7-7-7-7-5-5-5-5-10-10-10-10-7-7-7-7-7-7-7-7-5-5-5-5-10-10-10-10-7-7-7-7-|

E-|------------------8--8--8--8-5-5-5-5------------------8--8--8--8-5-5-5-5-|

e-|--------------------|

B-|--------------------|

G-|--------------------|

D-|------------------3-|

A-|-2-4-5-2--2-3-4-2-1-|

E-|-0-2-3-0--0-2-3-0---|

-------------------------------------------------------------------------------

Get this song at:  amazon.com sheetmusicplus.com

Share your thoughts

0 Comments found