No Use for a Name

No Use for a Name - Until It's Gone guitar tab

---------------------------------------------------------------------------

Until It's Gone - No Use for a Name

---------------------------------------------------------------------------

By: André Quatmann

Intro:

p.m. ^^^^ ^^^^ ^^^^ x 8

e||-------------------------------||-----------------------------|

B||-------------------------------||-----------------------------|

G||*-----------------------------*||-----------------------------|

D||--8-8-8-7-7-7-8-8-8-7-7-7-8-7--||-8----7----5----7----8----7--|

A||*-8-8-8-7-7-7-8-8-8-7-7-7-8-7-*||-8----7----5----7----8----7--|

E||--6-6-6-5-5-5-6-6-6-5-5-5-6-5--||-6----5----3----5----6----5--|

Riff 1

e|-----------------------------||-----------------------------|

B|-----------------------------||-----------------------------|

G|-----------------------------||*----------------------------|

D|-8-8-8-7-7-7-5-5-5-7-7-7-8-7-||--8-8-8-8--7-8-7-5-5-5-5-5-5-|

A|-8-8-8-7-7-7-5-5-5-7-7-7-8-7-||*-8-8-8-8--7-8-7-5-5-5-5-6-5-|

E|-6-6-6-5-5-5-3-3-3-5-5-5-6-5-||--6-6-6-6--5-6-5-3-3-3-3-3-3-|

Gtr. 2 C#5 A5

e|------------------------------------||------------------------------------|

B|------------------------------------||------------------------------------|

G|-----------------------------------*||------------------------------------|

D|-8-8-8-8--7-8-7--12-12-12-12-13-12--||-13-13-13-13-14-13-14-14-14-14-15-14|

A|-8-8-8-8--7-8-7--10-10-10-10-10-10-*||-11-11-11-11-11-11-12-12-12-12-12-12|

E|-6-6-6-6--5-6-5---------------------||------------------------------------|

C#5 G5 C#5 A5 Ende Riff 1

e|-------------------------------------------------------------------------|

B|-------------------------------------------------------------------------|

G|-------------------------------------------------------------------------|

D|-13-13-13-13-14-13-12-12-12-12-13-12-13-13-13-13-14-13-14-14-14-14-15-14-|

A|-11-11-11-11-11-11-10-10-10-10-10-10-11-11-11-11-11-11-12-12-12-12-12-12-|

E|-------------------------------------------------------------------------|

Jetzt 4 x G5 spielen

Verse:

G5

Buildings will replace the trees

D#5 A#5 D5

Pollution will replace the air we breathe

G5

I'm close to the mountain, 15 miles away

D#5 A#5 D5

But I can't see the hills from here today

Pre Chorus:

G5 D#5 D5

We can't just let it pass us by

G5 D#5 D5

And as I look into the sky

C5

Something in the atmosphere

A#5 A5

Is telling me it won't be here for long

p.m^^^^^^^^^^^^^^^^^^^^^^^^^^

e|------------------------------------|

B|------------------------------------|

G|--------------------------------8---|

D|-5-5-5-5-5-5-5-5-5-5-5-5-5-5-5--8-8-|

A|-5-5-5-5-5-5-5-5-5-5-5-5-5-5-5--6-8-|

E|-3-3-3-3-3-3-3-3-3-3-3-3-3-3-3----6-|

Verse 2:

G5

Take a picture of this place

D#5 A#5 D5

Cause extinction is not so far away

G5

Our skin will fry like a steak well done

D#5 A#5 D5

When there's nothing between us and the sun

Pre-Chorus:

G5 D#5 D5

We can't just let it pass us by

G5 D#5 D5

And as I look into the sky

C5

Something in the atmosphere

A#5 A5

Is telling me it won't be here for long

p.m^^^^^^^^^^^^^^^^^^^^^^^^^^ ^^^^^^^^^^^^^^^^^^^^^^^^^^^^^^^^

e|--------------------------------------------------------------------------|

B|--------------------------------------------------------------------------|

G|--------------------------------8---10-10-10-10-10-10-10-10-10-10-10----8-|

D|-5-5-5-5-5-5-5-5-5-5-5-5-5-5-5--8-8-10-10-10-10-10-10-10-10-10-10-10--8-8-|

A|-5-5-5-5-5-5-5-5-5-5-5-5-5-5-5--6-8--8--8--8--8--8--8--8--8--8--8--8--8-6-|

E|-3-3-3-3-3-3-3-3-3-3-3-3-3-3-3----6-----------------------------------6---|

Chorus:

G5 F5 D#5

Until it's gone,

G5 F5 D#5

Until it's gone,

G5 F5 D#5

Until it's gone,

C5 Riff 2

We'll never miss it until it's gone.

Riff 2

e|----------------------------------------------|

B|----------------------------------------------|

G|-4-4-4-4-4--7-7-7-7-7-6-6-6-6-6-6-6-6-6-6-6-6-|

D|----------------------------------------------|

A|-2-2-2-2-2--5-5-5-5-5-4-4-4-4-4-4-4-4-4-4-4-4-|

E|----------------------------------------------|

e|----------------------------------------------|

B|----------------------------------------------|

G|-6-6-6-6-6-9-9-9-9-9-9--8-8-8-8-8-8-8-8-8-8-8-|

D|----------------------------------------------|

A|-4-4-4-4-4-7-7-7-7-7-7--6-6-6-6-6-6-6-6-6-6-6-|

E|----------------------------------------------|

End Riff 2

e||----------------------------------------------------||

B||----------------------------------------------------||

G||*--------------------------------------------------*||

D||--7-7-7-5-7-8-8-7-8-5-3---7-7-7-5-7-8-8-7-8-10-8-7--||

A||*-7-7-7-5-7-8-8-7-8-5-3---7-7-7-5-7-8-8-7-8-10-8-7-*||

E||--5-5-5-3-5-6-6-5-6-3-1---5-5-5-3-5-6-6-5-6--8-6-5--||

Gitarren Solo, Gitarre 2 spielt Riff

e|------------------------|-------------------------------------------------|

B|------------------------|11p10----10~-11p10h11p10----10------10-11-13-11-13

G|------------|==P.H.===|-|------12-----------------12----10-12-------------|

D|------------|---------|-|-------------------------------------------------|

A|13-13-13-13-12-13-12-10|-------------------------------------------------|

E|------------------------|-------------------------------------------------|

e|-------------------------13-------------------|

B|-13^-13r-11~----11-13-13^--13r-11-13-11-------|

G|-------------12-------------------------12~~~-|

D|----------------------------------------------|

A|----------------------------------------------|

E|----------------------------------------------|

Verse 3:

G5

All the efforts seem to fall

D#5 A#5 D5

With cars and cars of aerosol

G5

I feel so guilty, then my pride will die

D#5 A#5 D5

When I see the grey, self-created sky

Pre-Chorus:

G5 D#5 D5

Until we find a better way

G5 D#5 D5

We'll have to learn from all our big mistakes

C5

Something in the atmosphere

A#5 A5

Is telling me it won't be here for long

p.m^^^^^^^^^^^^^^^^^^^^^^^^^^ ^^^^^^^^^^^^^^^^^^^^^^^^^^^^^^^^

e|--------------------------------------------------------------------------|

B|--------------------------------------------------------------------------|

G|--------------------------------8---10-10-10-10-10-10-10-10-10-10-10----8-|

D|-5-5-5-5-5-5-5-5-5-5-5-5-5-5-5--8-8-10-10-10-10-10-10-10-10-10-10-10--8-8-|

A|-5-5-5-5-5-5-5-5-5-5-5-5-5-5-5--6-8--8--8--8--8--8--8--8--8--8--8--8--8-6-|

E|-3-3-3-3-3-3-3-3-3-3-3-3-3-3-3----6-----------------------------------6---|

Chorus:

G5 F5 D#5

Until it's gone,

G5 F5 D#5

Until it's gone,

G5 F5 D#5

Until it's gone,

C5 G5 hold

We'll never miss it until it's gone.

Outro:

e|-------------------------||-----------------------|----------------------||

B|-------------------------||-----------------------|----------------------||

G|-5-5-5-5-5-5-8-8-8-8-8-8-||*------7-7-7-8-8-8-8-8-|8-8-8-------5-5-5-5-5*||

D|-5-5-5-5-5-5-8-8-8-8-8-8-||-5-5-5-7-7-7-8-8-8-8-8-|8-8-8-8-8-8-5-5-5-5-5-||

A|-3-3-3-3-3-3-6-6-6-6-6-6-||*5-5-5-5-5-5-6-6-6-6-6-|6-6-6-8-8-8-3-3-3-3-3*||

E|-------------------------||-3-3-3-----------------|------6-6-6-----------||

Gtr. 2 slided auf der Gitarre von hoch nach tief

e|----------|

B|----------|

G|-7-7-7-7--|

D|----------|

A|-5-5-5-5--|

E|----------|

Wiederhole Riff 1

Get this song at:  amazon.com sheetmusicplus.com

Share your thoughts

0 Comments found