No Use for a Name

No Use for a Name - Until Its Gone bass tab

---------------------------------------------------------

UNTIL IT'S GONE / No Use For A Name

---------------------------------------------------------

G-|-------------------------------------------------------------------------

D-|-------------------------------------------------------------------------

A-|-------------------------------------------------------------------------

E-|-6-x-5-x-6-x-5-6-5-6-x-5-x-6-x-5-6-5-6-x-5-x-6-x-5-6-5-6-x-5-x-6-x-5-6-5-

G-|-------------------------------------------------------------------------|

D-|-------------------------------------------------------------------------|

A-|-------------------------------------------------------------------------|

E-|-6-x-5-x-6-x-5-6-5-6-x-5-x-6-x-5-6-5-6-x-5-x-6-x-5-6-5-6-x-5-x-6-x-5-6-5-|

G-|-------------------------------|-----------------------------------------

D-|-------------------------------|-----------------------------------------

A-|-------------------------------------------------------------------------

E-|-6-5-3-5-6-5-6-6-5-5-3-3-5-6-5-|-6-6-5-6-5-3-3-3-3-6-6-5-6-5

G-|-----------|---------------------------------------------------|

D-|-----------|---------------------------------------------------|

A-|---------------------------------------------------------------|

E-|-6-6-5-6-5-|-3-3-3-4-4-4-5-5-5-4-4-4-3-3-3-4-4-4-5-5-5-4-4-4-4-|

G-|-----------------------------------------------------------------

D-|-----------------------------------------------------------------

A-|--------------------------------------------6-6-6-6-6-6-6-6----------5-5-5-5-

E-|-3-3-3-3-3-3-3-3-3-3-3-3-3-3-3-3---------------------6-6-6-6---------

G-|-----------------------------------------------------------------|

D-|-----------------------------------------------------------------

A-|--------------------------------------------6-6-6-6-6-6-6-6----------5-5-5-5-|

E-|-3-3-3-3-3-3-3-3-3-3-3-3-3-3-3-3-------------------6-6-6-6---------|

G-|--------------------------------------------------------------------------------------------------

D-|---------------------------------------------------------------------------------------------------

A-|---------------------6-6-6-6-5-5-5-5------------------------6-6-6-6-5-5-5-5-3-3-3-3-

E-|-3-3-3-3-3-3-3-3----------------------3-3-3-3-3-3-3-3----------------------------------

G-|---------------------------------------------------------------------------------------------|

D-|---------------------------------------------------------------------------------------------|

A-|-3-3-3-3------------------------------------------------------------------------------6--|

E-|------------6-6-6-6-6-6-6-6-5-5-5-5-5-5-5-5-3-3-3-3-3-3-3-3-3-3-3-3---6-|

G-|--------------------------------------------------------------------------------------

D-|--------------------------------------------------------------------------------------

A-|---------------------------------------------6-6-6-6-6-6-6-6---------5-5-5-5-

E-|-3-3-3-3-3-3-3-3-3-3-3-3-3-3-3-3----------------------6-6-6-6----------

G-|--------------------------------------------------------------------------------------|

D-|---------------------------------------------------------------------------------------|

A-|--------------------------------------------6-6-6-6-6-6-6-6------------5-5-5-5-|

E-|-3-3-3-3-3-3-3-3-3-3-3-3-3-3-3-3----------------------6-6-6-6------------|

G-|-----------------------------------------------------------------------------------------------

D-|------------------------------------------------------------------------------------------------

A-|----------------------6-6-6-6-5-5-5----------------------6-6-6-6-5-5-5-5-3-3-3-3-

E-|-3-3-3-3-3-3-3-3-------------------3-3-3-3-3-3-3-3-----------------------------------

G-|--------------------------------------------------------------------------------------------

D-|--------------------------------------------------------------------------------------------

A-|-3-3-3-3------------------------------------------------------------------------------6--

E-|------------6-6-6-6-6-6-6-6-5-5-5-5-5-5-5-5-3-3-3-3-3-3-3-3-3-3-3-3---6-

G-|-------------------------------------------------------------|

D-|-------------------------------------------------------------|

A-|--8--8--8--8--8--8--8--8--8--8--8--8--8--8--8---8-|

E-|-------------------------------------------------|------------

G-|-------------------------------------------------------------------------------

D-|-------------------------------------------------------------------------------

A-|-5-5-5-5-3-3-3-3------------------------5-5-5-5--8--8--8--8-8-----

E-|-----------------------6-6-6-6-6-6-6-6-------------------------------6-6-6-6-6-6-6-6-

G-|------------------------------------------------------------------|

D-|------------------------------------------------------------------|

A-|-5-5-5-5-3-3-3-3-----------------------3-3-3-3-3-3-3-3-|

E-|-----------------------6-6-6-6-6-6-6-6-------------------------|

G-|--------------------------------------------------------------------

D-|--------------------------------------------------------------------

A------------------------------------------------------------------------------------------

E-|-5-5-5-3-5-6-5-6-5-3-1-5-5-5-3-5-6-5-6--8-6-5-5-5-5-3-5-6-5-6-5-3-1-

G-|------------------------|--------------------------------------------

D-|------------------------|-8-7-8-7-5------------------------------

A-|--|------------------------------------------------------------------

E-|-5-5-5-3-5-6-5-6--8-6-5-|------------------------------------

G-|---------------------------------------------------|

D-|---------------------------------------------------|

A-|----------------------------------------------------

E-|-3-3-3-4-4-4-5-5-5-4-4-4-3-3-3-4-4-4-5-5-5-4-4-4-4-|

G-|-------------------------------------------------------------------------------------

D-|--------------------------------------------------------------------------------------

A-|--------------------------------------------6-6-6-6-6-6-6-6-------------5-5-5-5-

E-|-3-3-3-3-3-3-3-3-3-3-3-3-3-3-3-3-----------------------6-6-6-6---------

G-|-----------------------------------------------------------------|

D-|------------------------------------------------------------------|

A-|---------------------------------------------6-6-6-6-6-6-6-6-------------5-5-5-5-|

E-|-3-3-3-3-3-3-3-3-3-3-3-3-3-3-3-3----------------------6-6-6-6---------|

G-|------------------------------------------------------------------------------------------------

D-|------------------------------------------------------------------------------------------------

A-|---------------------6-6-6-6-5-5-5-5-----------------------6-6-6-6-5-5-5-5-3-3-3-3-

E-|-3-3-3-3-3-3-3-3---------------------3-3-3-3-3-3-3-3-------------------------

G-|---------------------------------------------------------------------------------------------

D-|---------------------------------------------------------------------------------------------

A-|-3-3-3-3------------------------------------------------------------------------------6--

E-|------------6-6-6-6-6-6-6-6-5-5-5-5-5-5-5-5-3-3-3-3-3-3-3-3-3-3-3-3---6-

G-|-------------------------------------------------|

D-|-------------------------------------------------------------|

A-|--8--8--8--8--8--8--8--8--8--8--8--8--8--8--8--8-|

E-|-------------------------------------------------|

G-|---------------------------------------------------------------------

D-|--------------------------------------------------------------------------

A-|-5-5-5-5-3-3-3-3--5-5-5-5-----------------------8--8--8--8-8-8-8-8-8-8-8-8-

E-|-----------------------------------6-6-6-6-6-6-6-6-----------------------------------6-6-6-6-6-6-6-6-

G-|---------------------------------------------------|

D-|--------------------------------------------

A-|-5-5-5-5-3-3-3-3--------------------3-3-3-3-3-3-3-3-5-|

E-|----------------------6-6-6-6-6-6-6-6-------------------|

G-|-----------------|------------------------------------------------------

D-|------------------------|-------------------------------------------------

A-|-3-3-3-3-6-6-6-6-|------5-5--------------------------------------------8--8-

E-|-----------------------|-3-3-----6-6-6-6-6-6-6-6--6-6-6-6-6-6-6-6--------8--8-

G-|--------------------------------------------------------------------------------------------

D-|------------------------------------------------------------------------------------------

A-|-----------------------------5-5---------------------------------------------8--8-----

E-|--8--8--8--8--8--8--3-3-----6-6-6-6-6-6-6-6--6-6-6-6-6-6-6-6--------8--8-

G-|---------------------------|

D-|---------------------------|

A-|-------------------------5-|

E-|--8--8--8--8--8--8----|

G-|-----------------------------------------------------------------------------------------|

D-|-----------------------------------------------------------------------------------------|

A-|-----------------------------------------------------------------------------------------|

E-|-6-6-5-6-5-3-3-3-3-6-6-5-6-5-3-3-3-3-6-6-5-6-5-3-3-3-3-6-6-5-6-5-|

G-|----------------------------------------------------------------------|

D-|----------------------------------------------------------------------|

A-|----------------------------------------------------------------------|

E-|-3-3-3-4-4-4-5-5-5-4-4-4-3-3-3-4-4-4-5-5-5-4-4-4-4-|

Get this song at:  amazon.com sheetmusicplus.com

Share your thoughts

0 Comments found