No Use for a Name

No Use for a Name - Undefeated guitar tab

By Tom

Intro

Guitar 1 - Lead

E------------------------------------------------------------->

B------------------------------------------------------------->

G------------------9-------------------------------9-9-9-9-9-->

D--9--11-11-11-11----11-11-11-11---9--11-11-11-11------------->

A------------------------------------------------------------->

E------------------------------------------------------------->

Guitar 2 - Rhythm

E------------->

B------------->

G------------->

D-11-Let Ring->

A-11---------->

E--9---------->

Guitar 1

E------------------------------------------------------------->

B------------------------------------------------------------->

G-----------------9------------------------------------------->

D--9--11-11-11-11----11-11-11-11---9--11-11-11-11--9-9-9-9-9-->

A------------------------------------------------------------->

E------------------------------------------------------------->

Guitar 2

E------------>

B------------>

G------------>

D-7-Let Ring->

A-7---------->

E-5---------->

Guitar 1

E------------------------------------------------------------->

B------------------------------------------------------------->

G------------------9-------------------------------9-9-9-9-9-->

D--9--11-11-11-11----11-11-11-11---9--11-11-11-11------------->

A------------------------------------------------------------->

E------------------------------------------------------------->

Guitar 2

E------------>

B------------>

G------------>

D-9-Let Ring->

A-9---------->

E-7---------->

Guitar 1

E---------------------------------------------------------------|

B--10-10-10-10-10-10-10-10-10-10---9--9--9--9--9--9--9--9--9--9-|

G---------------------------------------------------------------|

D---------------------------------------------------------------|

A---------------------------------------------------------------|

E---------------------------------------------------------------|

Guitar 2

E----------------------------------------------|

B----------------------------------------------|

G----------------------------------------------|

D--4--Let Ring---------------------2--Let Ring-|

A--4-------------------------------2-----------|

E--2-------------------------------0-----------|

Play through twice, then play once with guitar 2 strumming all notes

Bridge to verse

Both Guitars

E-------|

B-------|

G-------|

D-9-----|

A-9-x20-|

E-7-----|

Verse

Both Guitars

E----------------------------------------------------|

B----------------------------------------------------|

G----------------------------------------------------|

D---11-------7-------2-------6-------7-------9-------| x2

A---11-x20---7-x20---2-x10---6-x10---7-x10---9-x10---|

E----9-------5-------0-------4-------5-------7-------|

Chorus

Both Guitars

E------------------------------------------------------------|

B------------------------------------------------------------|

G---------4-------6--------------------4---------------------|

D--2------4-x16---6-x8---7------2------4-x16---7*-----9------|

A--2-x16--2-------4------7-x8---2-x16--2-------7-x10--9-x10--|

E--0---------------------5------0--------------5------7------|

*Changes rhythm + strumming from broken-down beat to same as verse

Then play:

Intro x1 (with strumming)

Verse x2

Chorus x1

Bridge to outro

Both Guitars

E---------------|

B---------------|

G---------------|

D--7-----9------|

A--7-x10-9-x10--|

E--5-----7------|

Then:

Intro x1 (just guitar 1, no guitar 2, bass or drums)

Intro x1 (everything)

End on

E----|

B----|

G----|

D-11-|

A-11-|

E--9-|

Summary:

Intro x3

Bridge to verse x1

Verse x2

Chorus x1

Verse x2

Chorus x1

Bridge to outro x1

Intro (guitar1) x1

Intro x1

End Note x1

Thats it. Some of the amounts of times you play things

(whatever the fuck you call it) may be wrong.

E-mail anything (except viruses) to more_than_jack@hotmail.com.

But don't e-mail to tell me that my tab is wrong because you

play the same note on a different string.

Get this song at:  amazon.com sheetmusicplus.com

Share your thoughts

0 Comments found