No Use for a Name

No Use for a Name - Turning Japanese guitar tab

Right, i said i'd get the rest of this tab to you and here it is. also i've

corrected (i hope) the many mistakes i made on the other one (version 1) AND

i'm not at school anymore (woop!) so this should be pretty much perfect.

p = pull off

~ = vibrato

^ = bend string

INTRO

e|---3-3-3-3-1-1--------||

B|---3-3-3-3-1-1-3-3-1--||

G|---------------2-2-1--|| PLAY TWICE THEN...

D|----------------------||

A|----------------------||

E|----------------------||

VERSE

e|----------------------------------------------||

B|-----12----12-------13p12---------------------||

G|-----12----12-------------12----9---9---------||

D|-----12----12----12-------------9---9---------||

A|--10----10----10--------------7---7---5-6-7~--||

E|----------------------------------------------||

BRIDGE 1

e|--------------||

B|--------------||

G|--2----5--7---|| LISTEN TO SONG FOR TIMING

D|--2----5--7---||

A|--0----3--5---||

E|--------------||

BRIDGE 2

e|---------------------------------------------------------||

B|--8-----------------------------8------------------------||

G|--7--5--9--7--5--5--9--9--7--7--7--5--9--7--5--5--9--7~--||

D|--5--5--9--7--5--5--9--9--7--7--5--5--9--7--5--5--9--7~--||

A|-----3--7--5--3--3--7--7--5--5-----3--7--5--3--3--7--5~--||

E|---------------------------------------------------------||

JAPANESE LICK

e|--10-10-10-10--8--8--5--5--8---||

B|--10-10-10-10--8--8--5--5--8---||

G|-------------------------------||

D|-------------------------------||

A|-------------------------------||

E|-------------------------------||

CHORUS

e|-------------------------------------------------------||

B|-------------------------------------------------------|| AGAIN, LISTEN

G|-------7--7--------7-5-4---------5--5--------5-4-2-----|| TO SONG FOR

D|--5----7--7----4-7-------7--3----5--5----2-5-------5---|| TIMING

A|--5----5--5--5--------------3----3--3--3---------------||

E|--3-------------------------1--------------------------||

BRIDGE 3

e|---------------||

B|---------------||

G|---------------||

D|--5--4--3--4---||

A|--5--4--3--4---||

E|--3--2--1--3---||

MIDDLE BIT 1

e|--3--3--3--3--5--5--1--1--1--1--3--3--|

B|--3--3--3--3--7--7--1--1--1--1--5--5--|

G|--4--4--4--4--7--7--2--2--2--2--5--5--|

D|--5--5--5--5--7--7--3--3--3--3--5--5--|

A|--5--5--5--5--5--5--3--3--3--3--3--3--|

E|--3--3--3--3--------1--1--1--1--------|

| G || D || F# || C |

x2 x2 x2 x2

MIDDLE BIT 2

e|--------------5--5--------------3--3--||

B|--------------7--7--------------5--5--||

G|--------------7--7--------------5--5--||

D|--5--5--5--5--7--7--3--3--3--3--5--5--||

A|--5--5--5--5--5--5--3--3--3--3--3--3--||

E|--3--3--3--3--------1--1--1--1--------||

|==========|| D ||==========|| C |

PM x2 x2 PM x2 x2

SOLO

e|--12-10-12--10--7--10-7-7-5-5-3-5--5-3-5--3--0--3--

B|--12-10-12--10--7--10-7-7-5-5-3-5--5-3-5--3--0--3--

G|---------------------------------------------------

D|---------------------------------------------------

A|---------------------------------------------------

E|---------------------------------------------------

e|-----------------------| |-------||

B|--3--5--6--8---10--12--| SECOND TIME |--15---||

G|--5^-7^-8^-10^-12^-14^-| PLAY-------> |--17^--||

D|-----------------------| AT THE END |-------||

A|-----------------------| |-------||

E|-----------------------| |-------||

~ORDER~

INTRO

VERSE x2

BRIDGE 1

VERSE x2

BRIDGE 1

VERSE x2

BRIDGE 1

BRIDGE 2

JAPANESE LICK

VERSE x2

BRIDGE 1

CHORUSx2

BRIDGE 3

BRIDGE 2

JAPANESE LICK

VERSE x2

BRIDGE 1

CHORUSx2

MIDDLE BIT 1

MIDDLE BIT 2

CHORUS

SOLO x2

CHORUSx2

SOLO

~END~

*P.S*

There are two guitars in this song, so while the lead guitar plays the verse, the

second gutar plays these(palm muted)power/rock chords;

||G5///|G5///|E5///|E5///||

All the bridge parts are the same, but during the chorus the second guitar plays

this;

||G5///|G5///|D5///|D5///|F#5///|F#5///|C5///|C5///|

The Middle Bits are the same.When the lead guitar plays the solos, the second

guitar plays the chorus chords.

~LYRICS~

I got your picture

of me and you

you wrote "I love you"

I wrote "me too"

I sit and stare when there is nothing else to do

oh its in colour

your hair is brown

your eyes are hazel

and soft as clouds

I often kiss you when there's nothing else around

I got your picture

I got your picture

I'd like a million of you over myself

I want a doctor

to take your picture

so i can look at you from inside as well

You've got me turning up and turning down

and turning in and turning 'round

I'm turning Japanese

I think I'm turning Japanese

I really think so

Turning Japanese

I think I'm turning Japanese

I really think so

I'm turning Japanese

I think I'm turning Japanese

I really think so

Turning Japanese

I think I'm turning Japanese

I really think so

I've got your picture,

I've got your picture

I'd like a million of you over myself

I want the doctor

to take your picture

So I can look at you from inside as well

You've got me turning up and turning down

and turning in and turning 'round

I'm turning Japanese

I think I'm turning Japanese

I really think so

Turning Japanese

I think I'm turning Japanese

I really think so

I'm turning Japanese

I think I'm turning Japanese

I really think so

Turning Japanese

I think I'm turning Japanese

I really think so

No sex, no drugs, no wine, no women

No fun, no sin, no you, no wonder it's dark

Everyone around me is a total stranger

Everyone avoids me like a psyched lone-ranger

Everyone

That's why I'm turning Japanese

I think I'm turning Japanese

I really think so

Turning Japanese

I think I'm turning Japanese

I really think so

I'm turning Japanese

I think I'm turning Japanese

I really think so

Turning Japanese

I think I'm turning Japanese

I really think so...

Turning Japanese

I think I'm turning Japanese

I really think so

I'm turning Japanese

I think I'm turning Japanese

I really think so

Turning Japanese

I think I'm turning Japanese

I really think so, think so, think so

Turning Japanese

I think I'm turning Japanese

i really think so.

Well thats it so please rate it or comment on it (or both!) so I know where I've gone wrong.

Cheers!!

If you have any corrections or want to shout at me or anything my email is nicafart@hotmail.com

Get this song at:  amazon.com

Share your thoughts

0 Comments found