No Use for a Name

No Use for a Name - Turning Japanese bass tab

-----------------------------------------------------------------------

TURNING JAPENESE NO USE FOR A NAME

-----------------------------------------------------------------------

>Means Strum

INTRO, VERSE x3

G]----------------------]

D]----------------------]

A]----7>----7>----3>-5>-]

E]-3>----3>----5>-------]

BRIDGE#1

G]----------------------------------------------------]

D]----------------------------------------------------]

A]---2-7-7-3-3-7-7-7-7-5----2-7-7-3-3-7-5-3-5-3-5-3-5-]

E]-3----------------------3---------------------------]

VERSE x1

CHORUS

G]-------------]

D]-------------]

A]----5>-8>-3>-]

E]-3>----------]

BRIDGE#2

G]--------------------------------------]

D]--------------------------------------]

A]------------2-7-7-3-3-7-5-3-5-3-5-3-5-]

E]-3-2-0-2--3---------------------------]

VERSEx1

CHORUSx4

NO SEX, NO DRUGS.........

G]-----------------------]

D]-----------------------]

A]----5---5------3---3---]

E]-3>---5---5-1>---3---3-]

CHORUS(even under solo)

END

G]---------------------]

D]---------------------]

A]-------------7-7-7-7-]

E]-3-2-0-2-3-2---------]

Get this song at:  amazon.com sheetmusicplus.com

Share your thoughts

0 Comments found