No Use for a Name

No Use for a Name - Truth Hits Everybody guitar tab

-------------------------------------------------------------------------------

TRUTH HITS EVERYBODY - No Use For A Name

-------------------------------------------------------------------------------

By: Jeff Munt

e-|-------------------------------------------------------------------------

B-|-------------------------------------------------------------------------

G-|-------------------------------------------------------------------------

D-|-7-7-7-7-7-7-7-7---------10-10-10-10-7-7-7-7-7-7-7-7---------10-10-10-10-

A-|-5-5-5-5-5-5-5-5-8-8-8-8--8--8--8--8-5-5-5-5-5-5-5-5-8-8-8-8--8--8--8--8-

E-|-----------------6-6-6-6-----------------------------6-6-6-6-------------

e-|---------------------------------------------------------------------|

B-|---------------------------------------------------------------------|

G-|---------------------------------------------------------------------|

D-|-7-7-7-7-7-7-7-7---------10-10-10-10-7-7-7-7-7-7-7-7---------8-8-8-8-|

A-|-5-5-5-5-5-5-5-5-8-8-8-8--8--8--8--8-5-5-5-5-5-5-5-5-8-8-8-8-6-6-6-6-|

E-|-----------------6-6-6-6-----------------------------6-6-6-6---------|

e-|---------------------------------------------------------------------

B-|---------------------------------------------------------------------

G-|---------------------------------------------------------------------

D-|-7-7-7-7-7-7-7-7-------------10-10-7-7-7-7-7-7-7-7-------------10-10-

A-|-5-5-5-5-5-5-5-5-8-8-8-8-8-8--8--8-5-5-5-5-5-5-5-5-8-8-8-8-8-8--8--8-

E-|-----------------6-6-6-6-6-6-----------------------6-6-6-6-6-6-------

e-|-------------------------------------------------------------------|

B-|-------------------------------------------------------------------|

G-|-------------------------------------------------------------------|

D-|-7-7-7-7-7-7-7-7-------------10-10-7-7-7-7-7-7-7-7-------------8-8-|

A-|-5-5-5-5-5-5-5-5-8-8-8-8-8-8--8--8-5-5-5-5-5-5-5-5-8-8-8-8-8-8-6-6-|

E-|-----------------6-6-6-6-6-6-----------------------6-6-6-6-6-6-----|

e-|---------------------------------|-------------------------------------

B-|---------------------------------|-------------------------------------

G-|---------------------------------|-------------------------------------

D-|-7-7-9-9-7-7-9-9-7-7-9-9-7-7-9-9-|-10-10-10-10-10-10-10-10-10-10-10-10-

A-|-5-5-7-7-5-5-7-7-5-5-7-7-5-5-7-7-|--8--8--8--8--8--8--8--8--8--8--8--8-

E-|---------------------------------|-------------------------------------

e-|-------------------------------------------------------------------------

B-|-------------------------------------------------------------------------

G-|-------------------------------------------------------------------------

D-|-10-10-10-10-7-7-7-7-7-7-7-7---------10-10-10-10-7-7-7-7-7-7-7-7---------

A-|--8--8--8--8-5-5-5-5-5-5-5-5-8-8-8-8--8--8--8--8-5-5-5-5-5-5-5-5-8-8-8-8-

E-|-----------------------------6-6-6-6-----------------------------6-6-6-6-

e-|-------------------------------------------------------------------------

B-|-------------------------------------------------------------------------

G-|-------------------------------------------------------------------------

D-|-10-10-10-10-7-7-7-7-7-7-7-7---------10-10-10-10-7-7-7-7-7-7-7-7---------

A-|--8--8--8--8-5-5-5-5-5-5-5-5-8-8-8-8--8--8--8--8-5-5-5-5-5-5-5-5-8-8-8-8-

E-|-----------------------------6-6-6-6-----------------------------6-6-6-6-

e-|----|

B-|----|

G-|----|

D-|-12-|

A-|-10-|

E-|----|

e-|---------------------------------------------------------------------

B-|---------------------------------------------------------------------

G-|---------------------------------------------------------------------

D-|-7-7-7-7-7-7-7-7-------------10-10-7-7-7-7-7-7-7-7-------------10-10-

A-|-5-5-5-5-5-5-5-5-8-8-8-8-8-8--8--8-5-5-5-5-5-5-5-5-8-8-8-8-8-8--8--8-

E-|-----------------6-6-6-6-6-6-----------------------6-6-6-6-6-6-------

e-|-------------------------------------------------------------------|

B-|-------------------------------------------------------------------|

G-|-------------------------------------------------------------------|

D-|-7-7-7-7-7-7-7-7-------------10-10-7-7-7-7-7-7-7-7-------------8-8-|

A-|-5-5-5-5-5-5-5-5-8-8-8-8-8-8--8--8-5-5-5-5-5-5-5-5-8-8-8-8-8-8-6-6-|

E-|-----------------6-6-6-6-6-6-----------------------6-6-6-6-6-6-----|

e-|---------------------------------|-------------------------------------

B-|---------------------------------|-------------------------------------

G-|---------------------------------|-------------------------------------

D-|-7-7-9-9-7-7-9-9-7-7-9-9-7-7-9-9-|-10-10-10-10-10-10-10-10-10-10-10-10-

A-|-5-5-7-7-5-5-7-7-5-5-7-7-5-5-7-7-|--8--8--8--8--8--8--8--8--8--8--8--8-

E-|---------------------------------|-------------------------------------

e-|-------------------------------------------------------------------------

B-|-------------------------------------------------------------------------

G-|-------------------------------------------------------------------------

D-|-10-10-10-10-7-7-7-7-7-7-7-7---------10-10-10-10-7-7-7-7-7-7-7-7---------

A-|--8--8--8--8-5-5-5-5-5-5-5-5-8-8-8-8--8--8--8--8-5-5-5-5-5-5-5-5-8-8-8-8-

E-|-----------------------------6-6-6-6-----------------------------6-6-6-6-

e-|-------------------------------------------------------------------------

B-|-------------------------------------------------------------------------

G-|-------------------------------------------------------------------------

D-|-10-10-10-10-7-7-7-7-7-7-7-7---------10-10-10-10-7-7-7-7-7-7-7-7---------

A-|--8--8--8--8-5-5-5-5-5-5-5-5-8-8-8-8--8--8--8--8-5-5-5-5-5-5-5-5-8-8-8-8-

E-|-----------------------------6-6-6-6-----------------------------6-6-6-6-

e-|----|-----------------------------------------------------------------

B-|----|-----------------------------------------------------------------

G-|----|-----------------------------------------------------------------

D-|-12-|-10-10-10-10-10-10-10-10-10-10-10-10-10-10-10-10-8-8-8-8-8-8-8-8-

A-|-10-|--8--8--8--8--8--8--8--8--8--8--8--8--8--8--8--8-6-6-6-6-6-6-6-6-

E-|----|-----------------------------------------------------------------

e-|-----------------------------------------------------------------|

B-|-----------------------------------------------------------------|

G-|-----------------------------------------------------------------|

D-|-8-8-8-8-8-8-8-8-10-10-10-10-10-10-10-10-10-10-10-10-10-10-10-10-|

A-|-6-6-6-6-6-6-6-6--8--8--8--8--8--8--8--8--8--8--8--8--8--8--8--8-|

E-|-----------------------------------------------------------------|

e-|---------------------------------------------------------------------

B-|---------------------------------------------------------------------

G-|---------------------------------------------------------------------

D-|-----------------8-8-8-8-8-8-8-8-10-10-10-10-10-10-10-10-10-10-10-10-

A-|-5-5-5-5-5-5-5-5-6-6-6-6-6-6-6-6--8--8--8--8--8--8--8--8--8--8--8--8-

E-|-3-3-3-3-3-3-3-3-----------------------------------------------------

e-|-------------------------------------------------|

B-|-------------------------------------------------|

G-|-------------------------------------------------|

D-|-----------------8-8-8-8-8-8-8-8-8-8-8-8-8-8-8-8-|

A-|-5-5-5-5-5-5-5-5-6-6-6-6-6-6-6-6-6-6-6-6-6-6-6-6-|

E-|-3-3-3-3-3-3-3-3---------------------------------|

e-|-----------------------------------------------------------------|

B-|-----------------------------------------------------------------|

G-|-----------------------------------------------------------------|

D-|-7-7-----7-7-----7-7-----7-7-----7-7-----7-7-----7-7-----7-7-----|

A-|-5-5-8-8-5-5-8-8-5-5-8-8-5-5-8-8-5-5-8-8-5-5-8-8-5-5-8-8-5-5-8-8-|

E-|-----6-6-----6-6-----6-6-----6-6-----6-6-----6-6-----6-6-----6-6-|

e-|-----------------------------------------|

B-|-----------------------------------------|

G-|-----------------------------------------|

D-|-----------------------------------------|

A-|-8-8-10-10-8-8-10-10-8-8-10-10-8-8-10-10-|

E-|-6-6--8--8-6-6--8--8-6-6--8--8-6-6--8--8-|

e-|-------------------------------------------------------------

B-|-------------------------------------------------------------

G-|-------------------------------------------------------------

D-|-10-10-10-10-10-10-10-10-10-10-10-10-10-10-10-10-10-10-10-10-

A-|--8--8--8--8--8--8--8--8--8--8--8--8--8--8--8--8--8--8--8--8-

E-|-------------------------------------------------------------

e-|-------------------------------------------------------------

B-|-------------------------------------------------------------

G-|-------------------------------------------------------------

D-|-7-7-7-7-7-7-7-7---------10-10-10-10-7-7-7-7-7-7-7-7---------

A-|-5-5-5-5-5-5-5-5-8-8-8-8--8--8--8--8-5-5-5-5-5-5-5-5-8-8-8-8-

E-|-----------------6-6-6-6-----------------------------6-6-6-6-

e-|-------------------------------------------------------------------------

B-|-------------------------------------------------------------------------

G-|-------------------------------------------------------------------------

D-|-10-10-10-10-7-7-7-7-7-7-7-7---------10-10-10-10-7-7-7-7-7-7-7-7---------

A-|--8--8--8--8-5-5-5-5-5-5-5-5-8-8-8-8--8--8--8--8-5-5-5-5-5-5-5-5-8-8-8-8-

E-|-----------------------------6-6-6-6-----------------------------6-6-6-6-

e-|----|

B-|----|

G-|----|

D-|-12-|

A-|-10-|

E-|----|

-------------------------------------------------------------------------------

Get this song at:  amazon.com sheetmusicplus.com

Share your thoughts

0 Comments found