No Use for a Name

No Use for a Name - Tollbridge guitar tab

Tabbed By: elgonad (elgonad@punkhardcore.net)

This song is totally awesome!! but the solo took a little while to figure

out and it's probably not exact, but it's close. any questions, email me.

Intro: ( means slide)

e:--------------------------------------

b:--------------------------------------

g:------77791197------11-11-111214

d:9-1112------------9-1112--------------

a:7-9-10------------7-9-10--------------

e:--------------------------------------

Verse: (sometimes played with palm mutes in the first 3 notes)

e:-----------

b:-----------

g:-----------

d:------7----

a:2245--57575

e:0023---5353

Chorus part 1: (2x) (on 2nd time, other guitar plays this)

e:----------------------|-------------------------------------------

b:----------------------|-------------------------------------------

g:----------------------|9911111112121212121212121414-121111111111--

d:99777------------77-54|-------------------------------------------

a:7755510710710710755-32|779-9-9-10101010101010101212-109-9-9-9-9-54

e:-----8-58-58-58-5-----|-----------------------------------------32

Chorus part 2: (play twice) (on the end of second time play this)

e:--------------------------|---------

b:--------------------------|---------

g:--------------------------|---------

d:-------------77775444444--|---------

a:22224555555555555322222254|-23532---

e:0000233333333-----------32|3-----320

^^^ ^^^^^^^^^

Bridge part 1: (play twice)

e:-------------------------------

b:-------------------------------

g:-------------------------------

d:---54------454---547-7-7-54

a:777323-3-3-232777325-5-5-32

e:555---1-1-1------555-----------

^^ ^^

Bridge part 2: (play twice)

e:----------------------------------------------------------

b:----------------------------------------------------------

g:----------------------------------------------------------

d:--6---6---6---6---4---4---4---4---6---6---6---6-6666644444

a:77-777-777-777-755-555-555-555-577-777-777-777-74444422222

e:----------------------------------------------------------

Solo: (timing isn't really tabbed but the notes are in order. ~ means bend)

e:---------------------------1512--------------------------------------------

b:-------------------------------1512------11~11-11-11-11--------------------

g:------------1214~12----------------141214--------------1412------12------14

d:--------1214-------14121412--------------------------------141214--141214--

a:----1214-------------------------------------------------------------------

e:1214-----------------------------------------------------------------------

e:--------------------------------------------------

b:121512--------------------------------------------

g:------1514--14------------------------------------

d:----------12--11-14-121412141214121412141214

a:--------------------------------------------------

e:--------------------------------------------------

Get this song at:  amazon.com sheetmusicplus.com

Share your thoughts

0 Comments found