No Use for a Name

No Use for a Name - The Daily Grind guitar tab

The Daily Grind - No Use For A Name

Tabbed by: Mark Arthur

This is one of there best songs - you have to learn it!

This is 100% correct, took me ages.

Intro:

Guitar 1

e|-----------------------|-----------------------|-----------------------|

B|-------7---8-7---7-----|-------7---8-7---7-----|-------7---8-7---7-----|

G|---7-9---9-----9---9-7-|---7-9---9-----9---9-7-|---7-9---9-----9---9-7-|

D|-9---------------------|-9---------------------|-9---------------------|

A|-----------------------|-----------------------|-----------------------|

E|-----------------------|-----------------------|-----------------------|

Guitar 2

G-|-9-9-9-9-9-9-9-9-| |-----------------| |-----------------|

D-|-9-9-9-9-9-9-9-9-| |-5-5-5-5-5-5-5-5-| |-7-7-7-7-7-7-7-7-|

A-|-7-7-7-7-7-7-7-7-| |-5-5-5-5-5-5-5-5-| |-7-7-7-7-7-7-7-7-|

E-|-----------------| |-3-3-3-3-3-3-3-3-| |-5-5-5-5-5-5-5-5-|

Guitar 1

e|-----------------------|-----------------------|-----------------------|

B|-------7---8-7---7-----|-------7---8-7---7-----|-------7---8-7---7-----|

G|---7-9---9-----9---9-7-|---7-9---9-----9---9-7-|---7-9---9-----9---9-7-|

D|-9---------------------|-9---------------------|-9---------------------|

A|-----------------------|-----------------------|-----------------------|

E|-----------------------|-----------------------|-----------------------|

Guitar 2

G-|-----------------| |-9-9-9-9-9-9-9-9-| |-----------------|

D-|-9-9-9-9-9-9-9-9-| |-9-9-9-9-9-9-9-9-| |-5-5-5-5-5-5-5-5-|

A-|-9-9-9-9-9-9-9-9-| |-7-7-7-7-7-7-7-7-| |-5-5-5-5-5-5-5-5-|

E-|-7-7-7-7-7-7-7-7-| |-----------------| |-3-3-3-3-3-3-3-3-|

Guitar 1

e|-----------------------|----------------------------------|

B|-------7---8-7---7-----|-------7----/12-12-12-12-12-12-12-|

G|---7-9---9-----9---9-7-|---7-9---9------------------------|

D|-9---------------------|-9--------------------------------|

A|-----------------------|----------------------------------|

E|-----------------------|----------------------------------|

Guitar 2

G-|-----------------| |-5-5-5-5-5-5-5-5-|

D-|-7-7-7-7-7-7-7-7-| |-5-5-5-5-5-5-5-5-|

A-|-7-7-7-7-7-7-7-7-| |-3-3-3-3-3-3-3-3-|

E-|-5-5-5-5-5-5-5-5-| |-----------------|

Verse 1: PM=palm mute, mutes the dots - theres 2 lots because the 2 guitars play it differently.

Another Morning and I'm Awake The Same old thing on a different Day

G-|-9-9-9-9-9-9-9-9-| G-|-----------------|

D-|-9-9-9-9-9-9-9-9-| D-|-5-5-5-5-5-5-5-5-|

A-|-7-7-7-7-7-7-7-7-| A-|-5-5-5-5-5-5-5-5-|

E-|-----------------| E-|-3-3-3-3-3-3-3-3-|

PM| ............. | PM| ............. |

PM| . . . . | PM| . . . . |

I want to drive but my Tank is Dry The Ground is wet with rain

G-|-----------------| G-|-----------------|

D-|-7-7-7-7-7-7-7-7-| D-|-9-9-9-9-9-9-9-9-|

A-|-7-7-7-7-7-7-7-7-| A-|-9-9-9-9-9-9-9-9-|

E-|-5-5-5-5-5-5-5-5-| E-|-7-7-7-7-7-7-7-7-|

PM| ............. | PM| ............. |

PM| . . . . | PM| . . . . |

Greedy people are pushing me Needy people in misery

G-|-9-9-9-9-9-9-9-9-| G-|-----------------|

D-|-9-9-9-9-9-9-9-9-| D-|-5-5-5-5-5-5-5-5-|

A-|-7-7-7-7-7-7-7-7-| A-|-5-5-5-5-5-5-5-5-|

E-|-----------------| E-|-3-3-3-3-3-3-3-3-|

PM| . . . . | PM| . . . . |

PM| . . . . | PM| . . . . |

It's a push and shove community But how the hell can I complain?

G-|-----------------| G-|-5-5-5-5-5-5-5-5-|

D-|-7-7-7-7-7-7-7-7-| D-|-5-5-5-5-5-5-5-5-|

A-|-7-7-7-7-7-7-7-7-| A-|-3-3-3-3-3-3-3-3-|

E-|-5-5-5-5-5-5-5-5-| E-|-----------------|

PM| . . . . | PM| |

PM| . . . . | PM| |

Chorus:

On the other side town

G-|--------------------------------- |----------------------------

D-|-5-5-5-5-5-5-5-5-5-5-5-5-5-5-5-5- |------------9-9-9-9-9-9-7-7-

A-|-3-3-3-3-3-3-3-3-3-3-3-3-3-3-3-3- |x-x-2-x-x-2-7-7-7-7-7-7-5-5-

E-|--------------------------------- |x-x-0-x-x-0-----------------

People are sleeping on the ground

G-|--------------------------------- |----------------------------

D-|-5-5-5-5-5-5-5-5-5-5-5-5-5-5-5-5- |------------9-9-9-9-9-9-7-7-

A-|-3-3-3-3-3-3-3-3-3-3-3-3-3-3-3-3- |x-x-2-x-x-2-7-7-7-7-7-7-5-5-

E-|--------------------------------- |x-x-0-x-x-0-----------------

Look Not far and you will find

G-|-----------------------------------------------------------------

D-|-----------------------------------------------------------------

A-|-9-9-9-9-9-9-9-9-4-4-4-4-4-4-4-4-5-5-5-5-5-5-5-5-5-5-5-5-5-5-5-5-

E-|-7-7-7-7-7-7-7-7-2-2-2-2-2-2-2-2-3-3-3-3-3-3-3-3-3-3-3-3-3-3-3-3-

A tragedy, the daily grind

G-|-----------------------------------------------------------------|

D-|-----------------------------------------------------------------|

A-|-9-9-9-9-9-9-9-9-4-4-4-4-4-4-4-4-5-5-5-5-5-5-5-5-5-5-5-5-5-5-5-5-|

E-|-7-7-7-7-7-7-7-7-2-2-2-2-2-2-2-2-3-3-3-3-3-3-3-3-3-3-3-3-3-3-3-3-|

Interlude (last half of intro) :

Guitar 1

e|-----------------------|-----------------------|

B|-------7---8-7---7-----|-------7---8-7---7-----|

G|---7-9---9-----9---9-7-|---7-9---9-----9---9-7-|

D|-9---------------------|-9---------------------|

A|-----------------------|-----------------------|

E|-----------------------|-----------------------|

Guitar 2

G-|-9-9-9-9-9-9-9-9-| |-----------------|

D-|-9-9-9-9-9-9-9-9-| |-5-5-5-5-5-5-5-5-|

A-|-7-7-7-7-7-7-7-7-| |-5-5-5-5-5-5-5-5-|

E-|-----------------| |-3-3-3-3-3-3-3-3-|

Guitar 1

e|-----------------------|----------------------------------|

B|-------7---8-7---7-----|-------7----/12-12-12-12-12-12-12-|

G|---7-9---9-----9---9-7-|---7-9---9------------------------|

D|-9---------------------|-9--------------------------------|

A|-----------------------|----------------------------------|

E|-----------------------|----------------------------------|

Guitar 2

G-|-----------------| |-5-5-5-5-5-5-5-5-|

D-|-7-7-7-7-7-7-7-7-| |-5-5-5-5-5-5-5-5-|

A-|-7-7-7-7-7-7-7-7-| |-3-3-3-3-3-3-3-3-|

E-|-5-5-5-5-5-5-5-5-| |-----------------|

Repeat Verse but with these lyrics:

Seems like when the times are tough

That hope is down and the price goes up

There's not enough jobs to fill a cup

And the streets are filled with shame

Here I am in a traffic jam

And ugly faces stare me down

And they call this the right side of town

But still I can't complain

Repeat Chorus but with these lyrics:

On the other side town

People are sleeping on the ground

Fighting wars that can't be won

A twelve year old boy, with a gun

Look not far and you find

G-|-----------------------------------------------------------------

D-|-6-6-6-6-6-6-6-6-------------------------------------------------

A-|-4-4-4-4-4-4-4-4-6-6-6-6-6-6-6-6-7-7-7-7-7-7-7-7-7-7-7-7-7-7-7-7-

E-|-----------------4-4-4-4-4-4-4-4-5-5-5-5-5-5-5-5-5-5-5-5-5-5-5-5-

A tragedy, the daily grind

G-|-----------------------------------------------------------------|

D-|-6-6-6-6-6-6-6-6-------------------------------------------------|

A-|-4-4-4-4-4-4-4-4-6-6-6-6-6-6-6-6-7-7-7-7-7-7-7-7-7-7-7-7-7-7-7-7-|

E-|-----------------4-4-4-4-4-4-4-4-5-5-5-5-5-5-5-5-5-5-5-5-5-5-5-5-|

Outro:

G|------------------------------------------------------------------|

D|-7--9-10-12-12-14-15-x--15-15-12-12-14-14-10-10-12-12-9-9-10-10-7-|

A|-7--9-10-12-12-14-15-x--15-15-12-12-14-14-10-10-12-12-9-9-10-10-7-|

E|-5--7--8-10-10-12-13-x--13-13-10-10-12-12--8--8-10-10-7-7--8--8-5-| X2

It's as simple as that!

Get this song at:  amazon.com sheetmusicplus.com

Share your thoughts

0 Comments found