No Use for a Name

No Use for a Name - The Daily Grind bass tab

-----------------------------------------------------------

THE DAILY GRIND / No Use For A Name

-----------------------------------------------------------

By: Carlos Pino

G-|-----------------------------------------------------------------

D-|-----------------------------------------------------------------

A-|-7-7-7-7-7-7-7-7-------------------------------------------------

E-|----------------------3-3-3-3-3-3-3-3-5-5-5-5-5-5-5-5-7-7-7-7-7-7-7-7-

G-|-----------------------------------------------------------------|

D-|-----------------------------------------------------------------|

A-|-7-7-7-7-7-7-7-7-------------------------------------------3-3-3-3-3-3-3-3-|

E-|----------------------3-3-3-3-3-3-3-3-5-5-5-5-5-5-5-5-----------------|

G-|-------------------------------------------------------------

D-|------------------------------------------------------------------------------

A-|-3-3-3-3-3-3-3-3-3-3-3-3-3-3-3-3-----------------7-7-7-7-7-7-5-5-

E-|---------------------------------------------x-x-0-x-x-0-----------------

G-|-------------------------------------------------------------|

D-|----------------------------------------------------------------

A-|-3-3-3-3-3-3-3-3-3-3-3-3-3-3-3-3---------------2-7-7-7-7-7-7-5-5-|

E-|--------------------------------------------x-x-0-x-x-0-----------------|

G-|-----------------------------------------------------------------

D-|-----------------------------------------------------------------

A-|-----------------------------------------------------------------

E-|-7-7-7-7-7-7-7-7-2-2-2-2-2-2-2-2-3-3-3-3-3-3-3-3-3-3-3-3-3-3-3-3-

G-|-----------------------------------------------------------------|

D-|-----------------------------------------------------------------|

A-|-----------------------------------------------------------------|

E-|-7-7-7-7-7-7-7-7-2-2-2-2-2-2-2-2-3-3-3-3-3-3-3-3-3-3-3-3-3-3-3-3-|

G-|-----------------------------------------------------------------

D-|-------------------------------------------------------------------

A-|-7-7-7-7-7-7-7-7--------------------------------------------------

E-|----------------------3-3-3-3-3-3-3-3-5-5-5-5-5-5-5-5-7-7-7-7-7-7-7-7-

G-|-----------------------------------------------------------------|

D-|-------------------------------------------------------------------

A-|-7-7-7-7-7-7-7-7-------------------------------------------3-3-3-3-3-3-3-3-|

E-|----------------------3-3-3-3-3-3-3-3-5-5-5-5-5-5-5-5-----------------|

G-|-------------------------------------------------------------

D-|--------------------------------------------------------------

A-|-3-3-3-3-3-3-3-3-3-3-3-3-3-3-3-3----------------7-7-7-7-7-7-5-5-

E-|--------------------------------------------x-x-0-x-x-0-----------------

G-|-------------------------------------------------------------|

D-|-------------------------------------------------------------|

A-|-3-3-3-3-3-3-3-3-3-3-3-3-3-3-3-3----------------7-7-7-7-7-7-5-5-|

E-|--------------------------------------------x-x-0-x-x-0-----------------|

G-|-----------------------------------------------------------------

D-|-----------------------------------------------------------------

A-|-----------------------------------------------------------------

E-|-7-7-7-7-7-7-7-7-2-2-2-2-2-2-2-2-3-3-3-3-3-3-3-3-3-3-3-3-3-3-3-3-

G-|-----------------------------------------------------------------|

D-|-----------------------------------------------------------------|

A-|-----------------------------------------------------------------|

E-|-7-7-7-7-7-7-7-7-2-2-2-2-2-2-2-2-3-3-3-3-3-3-3-3-3-3-3-3-3-3-3-3-|

G-|-----------------------------------------------------------------

D-|-----------------------------------------------------------------

A-|-4-4-4-4-4-4-4-4-------------------------------------------------

E-|----------------------4-4-4-4-4-4-4-4-5-5-5-5-5-5-5-5-5-5-5-5-5-5-5-5-

G-|-----------------------------------------------------------------|

D-|-----------------------------------------------------------------|

A-|-4-4-4-4-4-4-4-4---------------------------------------------------

E-|-----------------------4-4-4-4-4-4-4-4-5-5-5-5-5-5-5-5-5-5-5-5-5-5-5-5-|

G-|---------------------------------------------

D-|---------------------------------------------

A-|-------------------------------------------------------------

E-|-5-5-7--8-10-10-12-13--13-10-12--8-10-7--8-7-

G-|---------------------------------------------|

D-|---------------------------------------------|

A-|----------------------------------------------

E-|-5-5-7--8-10-10-12-13--13-10-12--8-10-7--8-7-|

Get this song at:  amazon.com sheetmusicplus.com

Share your thoughts

0 Comments found