No Use for a Name

No Use for a Name - The Answer Is Still No bass tab

Song: The Answer Is Still No

Band: No Use For A Name

Album: Making Friends

tabbed by: Olya <olly_r@hotmail.com>

** = play about 11 times (listen to cd for rhythm & timing etc)

* = about half of above

INTRO

G:---------------------------------------------------------------

D:----------------0*-33-22----------------0**--------------------

A:-0**--3**----------------0**--3**------------------------------

E:-----------1**---------------------1**-------------------------

G:---------------------------------------------------------------

D:-----------3**--0**------------3**--0--------------------------

A:-0**--3**------------0**--3**----------------------------------

E:---------------------------------------------------------------

VERSE

G:---------------------------------------------------------------

D:---------------------------------------------------------------

A:-0**--------------------------------3**------------------------

E:---------------------------------------------------------------

G:---------------------------------------------------------------

D:------------------------------------------0*-------------------

A:---------------------------------------------3*----------------

E:---------1**---------------------------------------------------

G:---------------------------------------------------------------

D:---------------------------------------------------------------

A:--------------------------------------------0**----------------

E:----------3**--------------------------------------------------

G:---------------------------------------------------------------

D:------------------------0*-------------------------------------

A:---------------------------------------------------------------

E:--------1*-------------------------------3*-------1*-----------

G:---------------------------------------------------------------

D:---------------------------------------------------------------

A:------3**------------------------------------------------------

E:----------------------------------3**-444----------------------

G:---------------------------------------------------------------

D:---------------------------------------------------------------

A:---------------------------------------------------------------

E:------5*----------------3*----------2*-------------------------

G:---------------------------------------------------------------

D:---------------------------------------------------------------

A:-------------------------------------------3**-----------------

E:------------1**------------------------------------------------

G:---------------------------------------------------------------

D:---------------------------------------------------------------

A:---------------------------------------------------------------

E:--------3**----------------------------------------------------

G:---------------------------------------------------------------

D:--------------------------------------------3**-0**------------

A:------------------------------------0**-3**--------------------

E:----------0**--------------------------------------------------

VERSE 2 - the same except end on:

G:---------------------------------------------------------------

D:---------2**---------------------------------------------------

A:------------------------------------------3**------------------

E:---------------------------------------------------------------

OUTRO

G:----------0*--------------------------------2------------------

D:--------------------3**-444-5555-------------------------------

A:---------------------------------------------------------------

E:---------------------------------------------------------------

(different rhythm part, * = about 6) does anybody care?

G:---------------------------------------------------------------

D:---------------------------------------------------------------

A:---------------------------------------------------------------

E:-5*-3*-2*-2*-3*-0*-5*-3*-2*-2*----3---------0------5-----------

The End

Get this song at:  amazon.com sheetmusicplus.com

Share your thoughts

0 Comments found