No Use for a Name

No Use for a Name - Straight From The Jacket bass tab

Song: Straight from the Jacket

Album: Leche con Carne

Artist: No Use for a Name

Intro:

E:-1111----|

Verse:

G:----------------------------------------|

D:----------------------------------------|

A:-1----4--0--1-------------------| X 2

E:-----2---------------2--4--1----|

Chorus:

G:--------------------------|

D:--------------------------|

A:--------------------------|

E:--2--1--2--4------|

Verse

Chorus

Under guitar solo play this then verse

G:----------|

D:----------|

A:-1------|

E:-----2--|

Bridge:

G:----------------------------------------| ------------|

D:----------------------------------------| ------------|

A:-1--0--1----------------1------| X 2 ------------|

E:----------------4--2--1-----4---| --2--4--|

Verse

Outro:

G:------------------------------------------|

D:------------------------------------------|

A:------------4---------------------------|

E:--2--1-----4--2--1--2--4---|

Taken from The BassMasta -- http://www.tabs-database.com

Get this song at:  amazon.com sheetmusicplus.com

Share your thoughts

0 Comments found