No Use for a Name

No Use for a Name - Soulmate bass tab

Song: Soulmate

Album: Leche con Carne

Artist: No Use for a Name

Tabbed by: alberto zorrico3@yahoo.com

Intro:

G:------------------------|

D:------------------------|

A:-------6-------4----| X 2

E:--4-------1----------|

Verse:

G:-----------------------------------|

D:-----------------------------------|

A:------6-----4-----6--4----| X 1

E:--4-----1-----4--------------|

Chorus:

G:-------------------------------------------------|

D:-------------------------------------------------|

A:------6----4---6--4-----------4-----6--|

E:--4-----1---4----------6--2-----4-----|

Intro

Verse

Chorus

Bridge: X 1 X 2 X 1

G:-------------|----------------------------------|------------|

D:-------------|----------------------------------|------------|

A:-------------|------6---------6--4--4-3-|-------6--|

E:-4--3----|--4----4--1----------------|--1-------|

Under guitar solo play intro

Verse

Chorus

Bridge

Intro

Outro:

G:----------| -------------|

D:----------| ------------|

A:-----6--| X 3 ---4------|

E:--1-----| -------4--|

Taken from The BassMasta -- http://www.tabs-database.com

Get this song at:  amazon.com sheetmusicplus.com

Share your thoughts

0 Comments found