No Use for a Name

No Use for a Name - Solitaire guitar tab

|---|

|---|

|---|

|-2-|

|-2-|

|-0-|

|---------------------------------------------------------|

|---------------------------------------------------------|

|-2-2--2-2-2---2------------------------------------------|

|-2-2--2-2-2---2-3-3--3-3-3---3-5-5--5-5-5---5-2-2--2-2-2-|

|-0-0--0-0-0---0-3-3--3-3-3---3-5-5--5-5-5---5-2-2--2-2-2-|

|----------------1-1--1-1-1---1-3-3--3-3-3---3-0-0--0-0-0-|

|---------------------------------------------------------|

|---------------------------------------------------------|

|---2--2-2-2---2------------------------------------------|

|-2-2--2-2-2---2-3-3--3-3-3---3-5-5--5-5-5---5-2-2--2-2-2-|

|-2-0--0-0-0---0-3-3--3-3-3---3-5-5--5-5-5---5-2-2--2-2-2-|

|-0--------------1-1--1-1-1---1-3-3--3-3-3---3-0-0--0-0-0-|

2te Gitarre is:

|-------------------------------------------------|

|-------------------------------------------------|

|-------------------------------------------------|

|-7-7--7-7-7--7-10-9-7-9-5-5--5-5-5--5-6-6--6-2-2-|

|-------------------------------------------------|

|-------------------------------------------------|

|---------------------------------------------------|

|---------------------------------------------------|

|---------------------------------------------------|

|-7-7--7-7-7--7-10-9-7-9-5-5--5-5-5--5-6-6--6-2-2/7-|

|---------------------------------------------------|

|---------------------------------------------------|

Der Rhytmus stimmt nich so ganz, aber die Töne glaub ich schon

|------------------------|

|------------------------|

|-2----------------------|

|-2-8x--3-----5-----2----|

|-0-----3-8x--5-8x--2-8x-|

|-------1-----3-----0----| 2x

|-------------------------------------------------------|

|-------------------------------------------------------|

|-5-----5-----------------------------------------------|

|-5-8x--5-8x--7-----5----3----5----3--5--2---7-5-3--3-3-|

|-3-----2-----7-----5----3----5----3--5--2---7-5-3--3-3-|

|-------------5-----3----1----3----1--3--0---5-3-1--1-1-|

|-------------------------------------|

|-------------------------------------|

|-5--------5--------5-----------------|

|-5-5-7-3--5-2-3-5--5-5-7-3--2------2-|

|-3-5-7-3--3-2-3-5--3-5-7-3--2------2-|

|---3-5-1----0-1-3----3-5-1--0------0-|

|---------------------------------------------------------|

|---------------------------------------------------------|

|-2-2--2-2-2---2------------------------------------------|

|-2-2--2-2-2---2-3-3--3-3-3---3-5-5--5-5-5---5-2-2--2-2-2-|

|-0-0--0-0-0---0-3-3--3-3-3---3-5-5--5-5-5---5-2-2--2-2-2-|

|----------------1-1--1-1-1---1-3-3--3-3-3---3-0-0--0-0-0-|

|---------------------------------------------------------|

|---------------------------------------------------------|

|---2--2-2-2---2------------------------------------------|

|-2-2--2-2-2---2-3-3--3-3-3---3-5-5--5-5-5---5-2-2--2-2-2-|

|-2-0--0-0-0---0-3-3--3-3-3---3-5-5--5-5-5---5-2-2--2-2-2-|

|-0--------------1-1--1-1-1---1-3-3--3-3-3---3-0-0--0-0-0-|

2te Gitarre is:

|-------------------------------------------------|

|-------------------------------------------------|

|-------------------------------------------------|

|-7-7--7-7-7--7-10-9-7-9-5-5--5-5-5--5-6-6--6-2-2-|

|-------------------------------------------------|

|-------------------------------------------------|

|-----------------------------------------------12-15-17-20-18-15-17------|

|-------------------------------------------------------------------------|

|----------------------------9-7--7h9p7-----------------------------------|

|-7-10-7-10-7-7--7-10-7-10-7------------10-9-7----------------------------|

|-------------------------------------------------------------------------|

|-------------------------------------------------------------------------|

|------------------------|

|------------------------|

|-2----------------------|

|-2-8x--3-----5-----2----|

|-0-----3-8x--5-8x--2-8x-|

|-------1-----3-----0----| 2x

|-------------------------------------------------------|

|-------------------------------------------------------|

|-5-----5-----------------------------------------------|

|-5-8x--5-8x--7-----5----3----5----3--5--2---7-5-3--3-3-|

|-3-----2-----7-----5----3----5----3--5--2---7-5-3--3-3-|

|-------------5-----3----1----3----1--3--0---5-3-1--1-1-|

|--------------------------------------------------|

|--------------------------------------------------|

|-5--------5--------5--------------------------5---|

|-5-5-7-3--5-2-3-5--5-5-7-3--5--2--7--5--3-2---5---|

|-3-5-7-3--3-2-3-5--3-5-7-3--5--2--7--5--3-2---3---|

|---3-5-1----0-1-3----3-5-1--3--0--5--3--1-0-------|

der part der 2ten gitarre is in dem teil so was wie:

|---------------------------------------------------|

|---------------------------------------------------|

|-5---7---9------------7---4---5-4---------------5--|

|---------------------------------------------------|

|-3---5---7------------5---2---3-2---------------3--|

|---------------------------------------------------|

Das stimmt glaub ich noch nich so ganz :-/

tabbed by Georg Maier

Get this song at:  amazon.com sheetmusicplus.com

Share your thoughts

0 Comments found