No Use for a Name

No Use for a Name - Solitaire bass tab

Artist No Use For A Name

Song Solitaire

Album Hard Rock Bottom

standard tuning

tabbed by TheBigLebowski (philmccracken7@yahoo.com)

Intro 2x

1|------|--------------------------------------|

2|------|--------------------------------------|

3|------|---------------------------------33-3-|

4|--0~--|-55-555-5-11-111-1-33-333-3-00-0------|

Verse 2x

1|-----------------------------------------|---------------------------------------|

2|-----------------------------------------|---------------------------------------|

3|-----------------------------------------|-3333-3333-22220000--------------------|

4|-5555-5555-1111-1111-3333-3333-0000-0000-|--------------------3333-3333-11110000-|

Pre-Chorus

1|-----------------------------------------|------------------------------------------------------|

2|-----------------------------------------|------------------------------------------------------|

3|-2222-2222-------------------------------|-------------------------------33332222-----------333-|

4|-----------3333-3333-1111-1111-3333-3333-|-1111-1111-3333-3333-0000-0000----------0000-0000-----|

Chorus

1|---------------------------------------------------------------------------5-4--3/5-|

2|-----------------------------------------------------3333-3333-5555-5555-33-3-33----|

3|-3333-3333---------------------------------3333-3333--------------------------------|

4|-----------1111-1111-3333-3333-1111-11-013------------------------------------------|

Cont.

1|-----------------------------------------|--------|

2|-----------------------------------------|--------|

3|-3333-3333-------------------------------|------3-|

4|-----------1111-1111-3333-3333-1111-1111-|--1~----|

Intro 2x

Verse 1x

Pre-Chorus

2nd Chorus

1|---------------------------------------------------------------------------5-4--3/5-|

2|-----------------------------------------------------3333-3333-5555-5555-33-3-33----|

3|-3333-3333---------------------------------3333-3333--------------------------------|

4|-----------1111-1111-3333-3333-1111-11-013------------------------------------------|

Cont.

1|-----------------------------------------|-----------------------------------------------------------|

2|-----------------------------------------|-----------------------------------------------------------|

3|-3333-3333-------------------------------|-------------------------------------------------------3~--|

4|-----------1111-1111-3333-3333-1111-1111-|-3333-3333-1111-1111-5555-5555-3333-3333-1111-1111-3~------|

Please rate this tab, Thanks.

Taken from The BassMasta -- http://www.tabs-database.com

Get this song at:  amazon.com sheetmusicplus.com

Share your thoughts

0 Comments found