No Use for a Name

No Use for a Name - Sleeping In guitar tab

-------------------------------------------------------------------------------

SLEEPING IN - No Use For A Name

-------------------------------------------------------------------------------

By: Ste Thwaites

Intro 1 (Guitar 1)

e|------------4---4---4--| e|-----------------------|

B|----5---5-----5---5----| B|----5---5---7---7---7--|

G|--6---6---6------------| x3 then play G|--4---4---4---4---4----|

D|-----------------------| D|-----------------------|

A|-----------------------| A|-----------------------|

E|-----------------------| E|-----------------------|

{_____________________________x2__________________________________}

Intro 1 (Guitar 2)

e|--------------------------------|

B|--------------------------------|

G|----------------11----9---------|

D|-----11----7----11----9----9----|

A|-----11----7-----9----7----9----|

E|------9----5---------------7----|

x8 x8 x8 x4 x4

{________________x2________________}

Intro 2 (Guitar 1)

e|-----------------------------------------------|

B|-----------------------------------------------|

G|------------------------------------------6>---|

D|------------------------------------------6>---|

A|--11--------6---------4---------3---------4>---|

E|-----------------------------------------------|

Intro 2 (Guitar 2)

e|-----------------------------------------------|

B|-----------------------------------------------|

G|------------------------------------------6>---|

D|--6-6-6-6---6-6-6-6---6-6-6-6---6-6-6-6---6>---|

A|--6-6-6-6---6-6-6-6---6-6-6-6---6-6-6-6---4>---|

E|--4-4-4-4---4-4-4-4---4-4-4-4---4-4-4-4--------|

Note: Let the last chord ring while the bass starts the verse

Verse second half (Guitar 1) Note: Play after the bass has been on its own

"Down the hall..."

e|----------------------------------------------------------------------|

B|----------------------------------------------------------------------|

G|---------------11--------9--9--6-----6-6-6--6-6-6--4-4-4--2-2---------|

D|--------11--9--11--7--9--9--9--6--9--7-7-7--7-7-7--6-6-6--4-4---9--7--|

A|--7--9--11--9---9--7--9--7--6--4--9-----------------------------9--7--|

E|---------9--7------5--7-----------7-----------------------------7--5--|

x4 x4 x8 x4 x4 x1 x1 x1 x1 {________Palm-mute______} x4 x4

Verse second half (Guitar 2)

e|-----------------------------------------------------------------------|

B|-----------------------------------------------------------------------|

G|---------------11--------9--9--6---------------------------------------|

D|--------11--9--11--7--9--9--9--6--9--7---------------------------9--7--|

A|--------11--9---9--7--9--7--6--4--9--7---------------------------9--7--|

E|---------9--7------5--7-----------7--5---------------------------7--5--|

x4 x4 x8 x4 x4 x1 x1 x1 x1 x8 x4 x4

Chorus (Both Guitars) "In the darkness..."

e|-------------------------------|

B|-------------------------------|

G|--9--------------------9-------|

D|--9---9---11---7---9---9---9---|

A|--7---9---11---7---9---7---9---|

E|------7----9---5---7-------7---|

x8 x8 x8 x4 x4 x4 x4

Verse 2 first half (Guitar 1) "Woke up..."

e|--------------------------------|

B|--------------------------------|

G|--------------------------------|

D|---11---9---7---9---7-----------|

A|---11---9---7---9---7---7---9---|

E|----9---7---5---7---5-----------|

x4 x4 x8 x4 x4

Verse 2 first half (Guitar 2)

e|--------------------------------|

B|--------------------------------|

G|------------------------9-------|

D|---11---9---7---9---7---9---9---|

A|---11---9---7---9---7---7---9---|

E|----9---7---5---7---5-------7---|

x4 x4 x8 x4 x4 x4 x4

Verse 2 second half (Both Guitars)

The same except don't play: A|---7---9--|

because it has already been played at the end of

Verse 2 first half

Chorus 2 (Both Guitars)

e|--------------------------------------------|

B|--------------------------------------------|

G|--9--------------------9--------------------|

D|--9---9---11---7---9---9---9---11---7---9---|

A|--7---9---11---7---9---7---9---11---7---9---|

E|------7----9---5---7-------7----9---5---7---|

x8 x8 x8 x4 x4 x8 x8 x8 x4 x4

Bridge (Guitar 1) "This is a long..."

e|---------------------------------------------------|

B|---------------------------------------------------|

G|---9---11---13---14---13---9---11---14---11---14---|

D|---X----X----X----X----X---x----x----x----x----x---|

A|---7----9---11---12---11---7----9---12----9---12---|

E|---------------------------------------------------|

x4 x4 x4 x2 x2 x4 x4 x4 x2 x2

Bridge (Guitar 2)

e|---------------------------------------------------|

B|---------------------------------------------------|

G|------------9--------------------------------------|

D|---11---9---9-------------11----9----7----9--------|

A|---11---9---7-------------11----9----7----9--------|

E|----9---7------------------9----7----5----7--------|

x4 x4 x8 x4 x4 x4 x4

Chorus 3 (Both Guitars) "In the darkness..."

e|------------------------------------------------|

B|------------------------------------------------|

G|--9--------------------9------------------------|

D|--9---9---11---7---9---9---9---11---7---9---7---|

A|--7---9---11---7---9---7---9---11---7---9---7---|

E|------7----9---5---7-------7----9---5---7---5---|

x8 x8 x8 x4 x4 x8 x8 x8 x4 x2 x2

Outro (Both Guitars) "I do whatever.."

e|------------------------------------------------------|

B|------------------------------------------------------|

G|--9--------------------9---9---6-----------------9>---|

D|--9---9---11---6---7---9---9---6---9---7>---9>---9>---|

A|--7---9---11---6---7---7---6---4---9---7>---9>---7>---|

E|------7----9---4---5---------------7---5>---7>--------|

x8 x8 x8 x8 x8 x2 x2 x2 x2

That's it.

My second tab is complete. It's only my second but I think its perfect.

Any questions e-mail me at Ste.t@talk21.com.

===============================================================================

Get this song at:  amazon.com sheetmusicplus.com

Share your thoughts

0 Comments found