No Use for a Name

No Use for a Name - Sleeping In bass tab

Band:No Use For A Name

Song:Sleeping In

Album:More Betterness

Tabbed by Kyle Gayne

Intro

G:-------------------------------------------------------------------|

D:-------------------------/7776666644444444-------------------------|

A:-4444444422222222-------------------------777777777777777766666666-|x2

E:-----------------55555555------------------------------------------|

G:----------------------------------|

D:----------------------------------|

A:----------------------------------|x1

E:-4444----4444----4444----4444----|

Verse

G:------------------------------------------------------------------|

D:------------------------------------------------------------------|

A:-4444444422222222----------------22222222--------7777777766666666-|x1

E:-----------------5555555555544444--------55555555-----------------|

G:------------------------------------------------------------------|

D:------------------------------------------------------------------|

A:-44444444222222221111111111111111----------------777766664444-----|x1

E:---------------------------------5555555577777777------------7777-|

G:----------------------------------|

D:----------------------------------|

A:----------------------------------|x1

E:-55555555555555557777777755555555-|

Chorus 1

G:------------------------------------------------------------------|

D:------------------------------------------------------------------|

A:-7777777777777777----------------4444444444444444-----------------|x1

E:-----------------7777777777777777----------------5555555577777777-|

G:------------------|

D:------------------|

A:-7777777755555----|x1

E:------------------|

Repeat:

Verse

Chorus 2

G:------------------------------------------------------------------|

D:------------------------------------------------------------------|

A:-7777777777777777----------------4444444444444444-----------------|x2

E:-----------------7777777777777777----------------5555555577777777-|

Bridge

G:------------------------------------------------------------------|

D:------------------------------------------------------------------|

A:-4444444422222222----------------4444444422222222--------44446666-|x1

E:-----------------0000000000000000----------------55555555---------|

Chorus 3

G:------------------------------------------------------------------|

D:------------------------------------------------------------------|

A:-7777777777777777----------------4444444444444444-----------------|x1

E:-----------------7777777777777777----------------5555555577777777-|

G:------------------------------------------------------------------|

D:------------------------------------------------------------------|

A:-7777777777777777----------------4444444444444444-----------------|x1

E:-----------------7777777777777777----------------555555557~--5~---|

Outro

G:------------------------------------------------------------------|

D:------------------------------------------------------------------|

A:-7777777777777777----------------4444444444444444-----------------|x1

E:-----------------7777777777777777----------------4444444444444444-|

G:------------------------------------------------------------------|

D:------------------------------------------------------------------|

A:-----------------777766664444-------------------------------------|x1

E:-5555555555555555------------77775~~~~~~~--------7~~~~~~~---------|

G:------------------------------------------------------------------|

D:------------------------------------------------------------------|

A:-7~~~~~~~~~~~~~~~~~~~~~~~~~~~~~~~---------------------------------|x1

E:-0~~~~~~~~~~~~~~~~~~~~~~~~~~~~~~~---------------------------------|

Taken from The BassMasta -- http://www.tabs-database.com

Get this song at:  amazon.com sheetmusicplus.com

Share your thoughts

0 Comments found