No Use for a Name

No Use for a Name - Six Degrees From Misty guitar tab

-------------------------------------------------------------------------------

SIX DEGREES FROM MISTY - No Use For A Name

-------------------------------------------------------------------------------

Intro - Each note *8, except *- play once

e|-----------------------------------|

B|-----------------------------------|

G|-5-5-5-5-----------------5-5-5-5*--|

D|-5-5-5-5-3-3-3-3-5-5-5-5-5-5-5-5---|

A|-3-3-3-3-3-3-3-3-5-5-5-5-3-3-3-3---|

E|---------1-1-1-1-3-3-3-3-----------|

_________Palm-muted________/

Verse - Palm muted (0:27) >>>>=Pick slide

e|---------------*2--------------|---------------*2--------------|

B|-------------------------------|-------------------------------|

G|-5-5-5---5-5-5---5-5-5---5-5-5-|-------------------------------|

D|-5-5-5---5-5-5---5-5-5---5-5-5-|-3-3-3---3-3-3---3-3-3---3-3-3-|

A|-3-3-3---3-3-3---3-3-3---3-3-3-|-3-3-3---3-3-3---3-3-3---3-3-3-|

E|-------------------------------|-1-1-1---1-1-1---1-1-1---1-1-1-|

e|---------------*2--------------|--------------*1.5-------------|-----------|

B|-------------------------------|-------------------------------|-----------|

G|-------------------------------|-5-5-5---5-5-5---5-5-5---5-5-5-|-4---------|

D|-5-5-5---5-5-5---5-5-5---5-5-5-|-5-5-5---5-5-5---5-5-5---5-5-5-|-4--->>>>--|

A|-5-5-5---5-5-5---5-5-5---5-5-5-|-3-3-3---3-3-3---3-3-3---3-3-3-|-2--->>>>--|

E|-3-3-3---3-3-3---3-3-3---3-3-3-|-------------------------------|----->>>>--|

Chorus (0:46) - Each Note *3 Gtr.1&2

e|------------------------------------------------|

B|------------------------------------------------|

G|-------------5--5--------7--7--5--5--5--5--5--5-|

D|-7--7--5--5--5--5--3--3--7--7--5--5--5--5--5--5-|

A|-7--7--5--5--3--3--3--3--5--5--3--3--2--2--2--2-|

E|-5--5--3--3--------1--1-------------------------|

Gtr.1 with (Gtr.2)

e|-----------------------------------------------(-10--10--10--13-12)|

B|-----------------------------------------------(b15--13--12-------)|

G|-------------5--5--------7--7--5--5--3--3--3--3--------------------|

D|-7--7--5--5--5--5--3--3--7--7--5--5--3--3--3--3--5---5---5---5-----|

A|-7--7--5--5--3--3--3--3--5--5--3--3--1--1--1--1--5---5---5---5-----|

E|-5--5--3--3--------1--1--------------------------3---3---3---3-----|

(1:10) Play Verse

(1:31) Play Chorus without Gtr.2 Part, and with P.M. on last G chord.

Outro (1:54)

Right Channel

e|---------------|----------------|------------|-------------|

B|---------------|----------------|------------|-------------|

G|---------------|----------------|------------|-------------|

D|---------------|----------------|------------|-------------|

A|-10--8--7--5-3-|-12--10--8--7-5-|-7--5--3--2-|-3--3--3--5--|

E|---------------|----------------|------------|-------------|

e|---------------|-------------|------------|------------|

B|---------------|-------------|------------|------------|

G|---------------|-------------|-4--5-------|-4--7--5----|

D|-10--9--7--5---|-7--5--3--2--|------------|------------|

A|---------------|-------------|------------|------------|

E|---------------|-------------|------------|------------|

Left Channel

e|--------------|---------------|-------------|-------------|

B|--------------|---------------|-------------|-------------|

G|-9--7--5--4-2-|-10--9--7--5-4-|-5--4--2--0--|-------------|

D|--------------|---------------|-------------|-5--3--2--2--|

A|--------------|---------------|-------------|-------------|

E|--------------|---------------|-------------|-------------|

e|-------------|-------------|-------------|---------------|

B|-------------|-------------|-------------|---------------|

G|-------------|-------------|-5-----------|-------5-------|

D|-------------|-------------|-5-----------|-------5-------|

A|-7--5--3--2--|-8--7--5--3--|-3-----------|-2--5--3-------|

E|-------------|-------------|-------------|---------------|

Tabbed by Kevin Gori

=========================================================================

Get this song at:  amazon.com

Share your thoughts

0 Comments found