No Use for a Name

No Use for a Name - Six Degrees For Misty bass tab

Band:No Use For A Name

Song:Six Degrees From Misty

Album:More Betterness

Tabbed by Kyle Gayne

Verse 1(bass enters at 0:25)

G:--------------------------------------------------------------------------|

D:--------------------------------------------------------------------------|

A:-3~~~----33333333333333333333333333333333---------------------------------|x1

E:-----------------------------------------11111111111111111111111111111111-|

G:------------------------------------------------------------------|

D:------------------------------------------------------------------|

A:---------------------------------33333333333333333333333322222222-|x1

E:-33333333333333333333333333333333---------------------------------|

Chorus 1

G:------------------------------------------------------------------|

D:------------------------------------------------------------------|

A:-----------------33333333--------55555555333333332222222222222222-|x1

E:-5555555533333333--------11111111---------------------------------|

G:------------------------------------------------------------------|

D:------------------------------------------------------------------|

A:-----------------33333333--------55555555333333331111111111111111-|x1

E:-5555555533333333--------11111111---------------------------------|

G:------------------|

D:------------------|

A:------------------|x1

E:-3333333333333333-|

Verse 2

G:------------------------------------------------------------------|

D:------------------------------------------------------------------|

A:-33333333333333333333333333333333---------------------------------|x1

E:---------------------------------11111111111111111111111111111111-|

G:------------------------------------------------------------------|

D:------------------------------------------------------------------|

A:---------------------------------33333333333333333333333322222222-|x1

E:-33333333333333333333333333333333---------------------------------|

Chorus 2

G:------------------------------------------------------------------|

D:------------------------------------------------------------------|

A:-----------------33333333--------55555555333333332222222222222222-|x1

E:-5555555533333333--------11111111---------------------------------|

G:------------------------------------------------------------------|

D:------------------------------------------------------------------|

A:-----------------33333333--------55555555333333331-1-1-1-1-1-1-1--|x1

E:-5555555533333333--------11111111---------------------------------|

G:------------------|

D:------------------|

A:------------------|x1

E:-3-3-3-3-33333----|

Outro

G:------------------------------------------------------------------|

D:------------------------------------------------------------------|

A:-33333333333333333333333333333333---------------------------------|x1

E:---------------------------------11111111111111111111111111111111-|

G:------------------------------------------------------------------|

D:------------------------------------------------------------------|

A:---------------------------------33333333333333333333333322222222-|x1

E:-33333333333333333333333333333333---------------------------------|

G:------------------------------------------------------------------|

D:------------------------------------------------------------------|

A:------------------------------------------------------------------|x1

E:-5555555555555555555555553333333311111111111111113333333333333333-|

G:------------------------------------------------------------------|

D:------------------------------------------------------------------|

A:-3~~~~~~~--------3~~~~~~~~~~~~~~~~~~~~~~~-------------------------|x1

E:------------------------------------------------------------------|

Taken from The BassMasta -- http://www.tabs-database.com

Get this song at:  amazon.com sheetmusicplus.com

Share your thoughts

0 Comments found