No Use for a Name

No Use for a Name - Sign the Bill guitar tab

-------------------------------------------------------------------------------

SIGN THE BILL - No Use For A Name

-------------------------------------------------------------------------------

By: Jeff Munt

e-|-------------------------------------------------------------------------

B-|-------------------------------------------------------------------------

G-|-------------------------------------------------------------------------

D-|-----7-----------------------7-----------------------7-------------------

A-|-5-5-5-7-8-8-8-8-8-8-8-8-5-5-5-7-8-8-8-8-8-8-8-8-5-5-5-7-8-8-8-8-8-8-8-8-

E-|-3-3---5-6-6-6-6-6-6-6-6-3-3---5-6-6-6-6-6-6-6-6-3-3---5-6-6-6-6-6-6-6-6-

e-|-------------------------|------------------------------------------------

B-|-------------------------|------------------------------------------------

G-|-------------------------|------------------------------------------------

D-|-----7-------------------|-----7-----------------------7------------------

A-|-5-5-5-7-8-8-8-8-8-8-8-8-|-5-5-5-7-8-8-8-8-8-8-8-8-5-5-5-7-8-8-8-8-8-8-8-8

E-|-3-3---5-6-6-6-6-6-6-6-6-|-3-3---5-6-6-6-6-6-6-6-6-3-3---5-6-6-6-6-6-6-6-6

e-|-------------------------------------------------|-----------------------

B-|-------------------------------------------------|-----------------------

G-|-------------------------------------------------|-----------------------

D-|-----7-----------------------7-------------------|-5-5-5-5-5-5-5-5-8-8-8-

A-|-5-5-5-7-8-8-8-8-8-8-8-8-5-5-5-7-8-8-8-8-8-8-8-8-|-3-3-3-3-3-3-3-3-6-6-6-

E-|-3-3---5-6-6-6-6-6-6-6-6-3-3---5-6-6-6-6-6-6-6-6-|-----------------------

e-|-----------------------------------------------------------------------

B-|-----------------------------------------------------------------------

G-|---------------7-------7---------------------------------------7-------

D-|-8-7-7-7-7-----5-7-----5-7-5-5-5-5-5-5-5-5-8-8-8-8-7-7-7-7-----5-7-----

A-|-6-5-5-5-5-5-5---5-5-5---5-3-3-3-3-3-3-3-3-6-6-6-6-5-5-5-5-5-5---5-5-5-

E-|-----------3-3-----3-3-------------------------------------3-3-----3-3-

e-|-----------------------|

B-|-----------------------|

G-|-7-------7-------------|

D-|-5-7-----5-7-----10-10-|

A-|---5-5-5---5-8-8--8--8-|

E-|-----3-3-----6-6-------|

e-|-------------------------------------------------------------------------

B-|-------------------------------------------------------------------------

G-|-------------------------------------------------------------------------

D-|-----7-----------------------7-----------------------7-------------------

A-|-5-5-5-7-8-8-8-8-8-8-8-8-5-5-5-7-8-8-8-8-8-8-8-8-5-5-5-7-8-8-8-8-8-8-8-8-

E-|-3-3---5-6-6-6-6-6-6-6-6-3-3---5-6-6-6-6-6-6-6-6-3-3---5-6-6-6-6-6-6-6-6-

e-|-------------------------|------------------------------------------------

B-|-------------------------|------------------------------------------------

G-|-------------------------|------------------------------------------------

D-|-----7-------------------|-----7-----------------------7------------------

A-|-5-5-5-7-8-8-8-8-8-8-8-8-|-5-5-5-7-8-8-8-8-8-8-8-8-5-5-5-7-8-8-8-8-8-8-8-8

E-|-3-3---5-6-6-6-6-6-6-6-6-|-3-3---5-6-6-6-6-6-6-6-6-3-3---5-6-6-6-6-6-6-6-6

e-|-------------------------------------------------|-----------------------

B-|-------------------------------------------------|-----------------------

G-|-------------------------------------------------|-----------------------

D-|-----7-----------------------7-------------------|-5-5-5-5-5-5-5-5-8-8-8-

A-|-5-5-5-7-8-8-8-8-8-8-8-8-5-5-5-7-8-8-8-8-8-8-8-8-|-3-3-3-3-3-3-3-3-6-6-6-

E-|-3-3---5-6-6-6-6-6-6-6-6-3-3---5-6-6-6-6-6-6-6-6-|-----------------------

e-|-----------------------------------------------------------------------

B-|-----------------------------------------------------------------------

G-|---------------7-------7---------------------------------------7-------

D-|-8-7-7-7-7-----5-7-----5-7-5-5-5-5-5-5-5-5-8-8-8-8-7-7-7-7-----5-7-----

A-|-6-5-5-5-5-5-5---5-5-5---5-3-3-3-3-3-3-3-3-6-6-6-6-5-5-5-5-5-5---5-5-5-

E-|-----------3-3-----3-3-------------------------------------3-3-----3-3-

e-|-----------------------|

B-|-----------------------|

G-|-7-------7-------------|

D-|-5-7-----5-7-----10-10-|

A-|---5-5-5---5-8-8--8--8-|

E-|-----3-3-----6-6-------|

e-|-------------------------------------------------------------------------

B-|-------------------------------------------------------------------------

G-|-------------------------------------------------------------------------

D-|-12-12-12-12-12-12-12-12-10-10-10-10-10-10-10-10-9-9-9-9-9-9-9-9-7-7-7-7-

A-|-10-10-10-10-10-10-10-10--8--8--8--8--8--8--8--8-7-7-7-7-7-7-7-7-5-5-5-5-

E-|-------------------------------------------------------------------------

e-|-------------------------------------------------------------------------

B-|-------------------------------------------------------------------------

G-|-------------------------------------------------------------------------

D-|-7-7-7-7-12-12-12-12-12-12-12-12-10-10-10-10-10-10-10-10-9-9-9-9-9-9-9-9-

A-|-5-5-5-5-10-10-10-10-10-10-10-10--8--8--8--8--8--8--8--8-7-7-7-7-7-7-7-7-

E-|-------------------------------------------------------------------------

e-|-------------------------------------------------------------------------

B-|-------------------------------------------------------------------------

G-|-------------------------------------------------------------------------

D-|-11-11-11-11-11-11-11-11-12-12-12-12-12-12-12-12-10-10-10-10-10-10-10-10-

A-|--9--9--9--9--9--9--9--9-10-10-10-10-10-10-10-10--8--8--8--8--8--8--8--8-

E-|-------------------------------------------------------------------------

e-|------------------------------------------------------------------------

B-|------------------------------------------------------------------------

G-|------------------------------------------------------------------------

D-|-9-9-9-9-9-9-9-9-7-7-7-7-7-7-7-7-12-12-12-12-12-12-12-12-10-10-10-10-10-

A-|-7-7-7-7-7-7-7-7-5-5-5-5-5-5-5-5-10-10-10-10-10-10-10-10--8--8--8--8--8-

E-|------------------------------------------------------------------------

e-|-----------------------------------------------------|

B-|-----------------------------------------------------|

G-|-----------------------------------------------------|

D-|-10-10-10-10-9-9-9-9-9-9-9-9-11-11-11-11-11-11-11-11-|

A-|--8--8--8--8-7-7-7-7-7-7-7-7--9--9--9--9--9--9--9--9-|

E-|-----------------------------------------------------|

e-|-------------------------------------------------------------------------

B-|-------------------------------------------------------------------------

G-|-------------------------------------------------------------------------

D-|-----7-----------------------7-----------------------7-------------------

A-|-5-5-5-7-8-8-8-8-8-8-8-8-5-5-5-7-8-8-8-8-8-8-8-8-5-5-5-7-8-8-8-8-8-8-8-8-

E-|-3-3---5-6-6-6-6-6-6-6-6-3-3---5-6-6-6-6-6-6-6-6-3-3---5-6-6-6-6-6-6-6-6-

e-|-------------------------|------------------------------------------------

B-|-------------------------|------------------------------------------------

G-|-------------------------|------------------------------------------------

D-|-----7-------------------|-----7-----------------------7------------------

A-|-5-5-5-7-8-8-8-8-8-8-8-8-|-5-5-5-7-8-8-8-8-8-8-8-8-5-5-5-7-8-8-8-8-8-8-8-8

E-|-3-3---5-6-6-6-6-6-6-6-6-|-3-3---5-6-6-6-6-6-6-6-6-3-3---5-6-6-6-6-6-6-6-6

e-|-------------------------------------------------|-----------------------

B-|-------------------------------------------------|-----------------------

G-|-------------------------------------------------|-----------------------

D-|-----7-----------------------7-------------------|-5-5-5-5-5-5-5-5-8-8-8-

A-|-5-5-5-7-8-8-8-8-8-8-8-8-5-5-5-7-8-8-8-8-8-8-8-8-|-3-3-3-3-3-3-3-3-6-6-6-

E-|-3-3---5-6-6-6-6-6-6-6-6-3-3---5-6-6-6-6-6-6-6-6-|-----------------------

e-|-----------------------------------------------------------------------

B-|-----------------------------------------------------------------------

G-|---------------7-------7---------------------------------------7-------

D-|-8-7-7-7-7-----5-7-----5-7-5-5-5-5-5-5-5-5-8-8-8-8-7-7-7-7-----5-7-----

A-|-6-5-5-5-5-5-5---5-5-5---5-3-3-3-3-3-3-3-3-6-6-6-6-5-5-5-5-5-5---5-5-5-

E-|-----------3-3-----3-3-------------------------------------3-3-----3-3-

e-|-------------------------|

B-|-------------------------|

G-|-7-------7---------------|

D-|-5-7-----5-7-----10-10---|

A-|---5-5-5---5-8-8--8--8-5-|

E-|-----3-3-----6-6-------3-|

-------------------------------------------------------------------------------

Get this song at:  amazon.com sheetmusicplus.com

Share your thoughts

0 Comments found