No Use for a Name

No Use for a Name - Secret Song guitar tab

-------------------------------------------------------------------------------------------------------------------

SECRET SONG - No Use For A Name

-------------------------------------------------------------------------------------------------------------------

By: Rambozo

e-|-----------------------------------------------------------------

B-|-----------------------------------------------------------------

G-|-----------------------------------------------------------------

D-|-7-7-7-7---------4-4-4-4---------7-7-7-7---------4-4-4-4---------

A-|-5-5-5-5-7-7-7-7-2-2-2-2-4-4-4-4-5-5-5-5-7-7-7-7-2-2-2-2-4-4-4-4-

E-|---------5-5-5-5---------2-2-2-2---------5-5-5-5---------2-2-2-2-

e-|-----------------------------------------------------------------

B-|-----------------------------------------------------------------

G-|-----------------------------------------------------------------

D-|-7-7-7-7---------4-4-4-4---------7-7-7-7---------4-4-4-4---------

A-|-5-5-5-5-7-7-7-7-2-2-2-2-4-4-4-4-5-5-5-5-7-7-7-7-2-2-2-2-5-5-5-5-

E-|---------5-5-5-5---------2-2-2-2---------5-5-5-5---------3-3-3-3-

e-|-----------------|

B-|-----------------|

G-|-----------------|

D-|-----------------|

A-|-7-7-7-7-7-7-7-7-|

E-|-5-5-5-5-5-5-5-5-|

e-|-----------------------------------------------------------------

B-|-----------------------------------------------------------------

G-|-----------------------------------------------------------------

D-|-----------------------------------------------------------------

A-|-7-7-7-7-9-9-9-9-5-5-5-5-5-5-5-5-7-7-7-7-9-9-9-9-9-5-5-5-5-5-5-5-

E-|-5-5-5-5-7-7-7-7-3-3-3-3-3-3-3-3-5-5-5-5-7-7-7-7-3-3-3-3-3-3-3-3-

e-|-----------------------------------------------------------------

B-|-----------------------------------------------------------------

G-|-----------------------------------------------------------------

D-|-----------------------------------------------------------------

A-|-7-7-7-7-9-9-9-9-5-5-5-5-5-5-5-5-7-7-7-7-9-9-9-9-9-5-5-5-5-5-5-5-

E-|-5-5-5-5-7-7-7-7-3-3-3-3-3-3-3-3-5-5-5-5-7-7-7-7-3-3-3-3-3-3-3-3-

e-|-----------------------|

B-|-----------------------|

G-|-----------------------|

D-|-----------------------|

A-|-7-7-7-7-7-7-7-7-7-7-7-|

E-|-5-5-5-5-5-5-5-5-5-5-5-|

e-|---------------------------------------------

B-|---------------------------------------------

G-|---------------------------------------------

D-|-x-x-9-x-x-9-x-x-9-x-x-9-x-x-9-x-x-9---------

A-|-x-x-7-x-x-7-x-x-7-x-x-7-x-x-7-x-x-7-5-7-5-7-

E-|-------------------------------------3-5-3-5-

e-|---------------------------------------------|

B-|---------------------------------------------|

G-|---------------------------------------------|

D-|-x-x-9-x-x-9-x-x-9-x-x-9-x-x-9-x-x-9---------|

A-|-x-x-7-x-x-7-x-x-7-x-x-7-x-x-7-x-x-7-5-7-5-7-|

E-|-------------------------------------3-5-3-5-|

e-|-----------------------------------------------------------------

B-|-----------------------------------------------------------------

G-|-----------------------------------------------------------------

D-|-9-9-----6-6-----9-9-----6-6-----9-9-----6-6-----9-9-----6-6-----

A-|-7-7-7-7-4-4-9-9-7-7-7-7-4-4-9-9-7-7-7-7-4-4-9-9-7-7-7-7-4-4-9-9-

E-|-----5-5-----7-7-----5-5-----7-7-----5-5-----7-7-----5-5-----7-7-

=====================================================================

Get this song at:  amazon.com sheetmusicplus.com

Share your thoughts

0 Comments found