No Use for a Name

No Use for a Name - Sara Fisher guitar tab

No Use For A Name - Sara Fisher

Submitted By: ben wiles

EMail: tinawiles@hotmail.com

e-----------------------------------------------------------------

b-----------------------------------------------------------------

g---------------------------------5---------------7---------------

d-----------------2---------------5-5-5-5-5-5-5-5-7-7-7-7-7-7-7-7-

a-5-5-5-5-5-5-5-5-2-2-2-2-2-2-2-2-3-3-3-3-3-3-3-3-5-5-5-5-5-5-5-5-

e-3-3-3-3-3-3-3-3-0-0-0-0-0-0-0-0-

pm-------------- pm----------- pm----------- pm-------

no pm in this part

e-----------------------------------------------------------------

b-----------------------------------------------------------------

g-----------------------------------------------------------------

d---------------------------------5-5-5-5-5-5-5-5-7-7-7-7-7-7-7-7-

a-5-5-5-5-5-5-5-5-2-2-2-2-2-2-2-2-3-3-3-3-3-3-3-3-5-5-5-5-5-5-5-5-

e-3-3-3-3-3-3-3-3-0-0-0-0-0-0-0-0---------------------------------

outro

e---------------------

b---------------------

g---------------------

d-5-5-5-5-5-5-5-5-5---

a-3-3-3-3-3-3-3-3-5---

e-----------------3---

very simple you should not have eny problams [punk/sex/bmx/]

Get this song at:  amazon.com sheetmusicplus.com

Share your thoughts

0 Comments found