No Use for a Name

No Use for a Name - Saddest Song guitar tab

Band: No Use For A Name

Song: Saddest Song (written by Tony Sly)

Album: More Betterness

Tuning: Standard

Tabbed by JAKE SCOTT,

- corrected & finished by Peter Tom Takaro (nouseforaname@freemail.hu)

keys,

^ = pull string down

/ = slide up

= slide down

x = mute string / triplet palm mutes / other type of palm mutes

p = pull off

****Intro****

Guitar #1 Strum these chords x2

E|--5-----------4------------4------------7--------------|

B|--7-----------4------------4------------7--------------|

G|--8-----------6------------5------------8--------------|

D|--8-----------6------------6------------9--------------|

A|--6-----------4------------6------------9--------------|

E|---------------------------4------------7--------------|

Guitar #2

E------------------------------------------------------------------11^-|

B----------------------------------------------------------------------|

G-6/8---8p-8/10----10p-10/11----11/13-11-10p-10/11----8/10----6/8------|

D-----8---------8-----------10--------------------13------11-----------|

A----------------------------------------------------------------------|

E----------------------------------------------------------------------|

****Riff 1****

Guitar #1 x2 then this

E|----------------------------------------------|----------------|

B|----------------------------------------------|----------------|

G|----------------------------------------------|----------------|

D|-8x----9x----9x----8x----6x----4x----4x----3x-|---4-4-4-4-4-4--|

A|-6x----6x----4x----4x----3x----3x----2x----4x-|---2-2-2-1-1-1--|

E|-------------------------4x----4x-------------|----------------|

_____/

Guitar #2 /

E|---------------------------------------|-----------------------|

B|---------------------------------------|-----------------------|

G|---------------------------------------|-11-11-13/15---7-7-8/10|

D|---------------------------------------|--x--x--x/-x---x-x-x/x-|

A|---------------------------------------|--9--9-11/13---5-5-6/8-|

E|---------------------------------------|-----------------------|

****Verse 1****

Whats wrong with everyone theres an panic in their eyes

E|-6----------------------------------2--------------1----

B|-7----------------4-----------------2--------------2----

G|-8----------------4-----------------3--------------1----

D|-8x---------------4x----------------4--------------3----

A|-6x---------------2x----------------4x-------------4x----

E|------------------------------------2x-------------1x----

like others getting close are aliens in disguise

E|--------------------------------------------------------

B|-8----------3-----------------4------6------------------

G|-8----------3-----------------4------6------------------

D|-8x---------3x----------------4x-----6x------------------

A|-4x---------1x----------------2x-----4x------------------

E|--------------------------------------------------------

They smelt conspiracy on the lips of dearest friends

E|-6---------------------------2--------------------------

B|-7------------4--------------2---------------6----------

G|-8------------4--------------3---------------6----------

D|-8x-----------4x-------------4---------------6x----------

A|-6x-----------2x-------------4x--------------4x----------

E|-----------------------------2x--------------------------

Reminds me of a time long ago they think its the end of

E|-6-------------------2----------------------------------

B|-7---------4---------2--------------3------------4------

G|-8---------4---------3--------------3------------4------

D|-8x--------4x--------4--------------3------------4------

A|-6x--------2x--------4x-------------1------------2------

E|---------------------2x----------------------------------

what we all created used to love but now we hate it

E|--------------------------------------------------------

B|--------6-----------3----------------8------6-----------

G|--------6-----------3----------------8------6-----------

D|--------6-----------3----------------8------6-----------

A|--------4-----------1----------------6------4-----------

E|--------------------------------------------------------

life is as simple as the mind it lives in

E|-------------------------------------------------------|

B|-4------------4------------------3---------------------|

G|-4------------4------------------3---------------------|

D|-4------------4------------------3---------------------|

A|-2------------1------------------1---------------------|

E|-------------------------------------------------------|

****Chorus****

The truth is a waste of time when were conditioned to

E|-2-------------1-------------0--------------------------

B|-2-------------2-------------0--------------------------

G|-3-------------1-------------1--------------------------

D|-4-------------3-------------2--------------------------

A|-4-------------4-------------2--------------------------

E|-2-------------1-------------0--------------------------

understand lies are the right way as we watch the

E|--------------------------------------------------------

B|--------------------------------------------------------

G|-8---------5------------3---------------6---------------

D|-8---------6------------4---------------6---------------

A|-6---------6------------4---------------4---------------

E|-----------4------------2-------------------------------

blind leading the blind

E|-------------------------------------------------------|

B|-3-------4---------------------------------------------|

G|-3-------4---------------------------------------------|

D|-3-------4---------------------------------------------|

A|-1-------2---------------------------------------------|

E|-------------------------------------------------------|

****Riff 1****

****Bridge****

E|-------------------------------------------------------|

B|-------------------------------------------------------|

G|---4--4--4-/--6----------------------------------------|

D|---x--x--x-/--x---4-4-4--------------------------------|

A|---2--2--2-/--4---4-4-4--------------------------------|

E|------------------2-2-2--------------------------------|

|-----|-Palm mute

****Verse #2****

****Chorus****

****Interlude**** x4

E|------------------------------------|-------------------

B|-8----------------------------------|--4----4----6----3-

G|-8----------------------------------|--4----5----6----3-

D|-8x---------------------------------|--4----6----6----3-

A|-6x---------------------------------|--2----6----4----1-

E|------------------------------------|-------4-----------

****Riff 1****

****Ending****

E|---------------------------||

B|---------------------------||

G|-8------------8------4---3-||

D|-8------------8------4---3-||

A|-6------------6------2---1-||

E|---------------------------||

-----------------------------------------------------------------------

Get this song at:  amazon.com sheetmusicplus.com

Share your thoughts

0 Comments found