No Use for a Name

No Use for a Name - Room 19 bass tab

No Use For A Name

Room 19

Tabbed by Paul Taite

Tuning E,A,D,G

I saw Matt Fritz's tab and it wasn't complete, so here is the bass tab for the

entire song : (Check for the structure at the end of this tab)

Any comments, email me at englandgeezer@hotmail.com

INTRO/VERSES

PART A

G -------------------------------------------------------------------------------

D -------------------------------------------------------------------------------

A --4--4--4--4--4--4--4--4--2--2--2--2--2--2--2--2-------------------------------

E --------------------------------------------------0--0--0--0--0--0--0--0--0--0-

G -------------------------------------------------------------------------------

D -------------------------------------------------------------------------------

A --0--0--0--0--0--0--0--0-------------------------------------------------------

E --------------------------0--0--0--0--0--0--0--0--4--4--4--4--4--4--4--4--4--4-

(wait for guitar only verse: after first time only)

PART B

G -------------------------------------------------------------------------------

D -------------------------------------------------------------------------------

A --4--4--4--4--4--4--4--4--2--2--2--2--2--2--2--2-------------------------------

E --------------------------------------------------0--0--0--0--0--0--0--0--0--0-

G -------------------------------------------------------------------------------

D -------------------------------------------------------------------------------

A --0--0--0--0--0--0--0--0-------------------------------------------------------

E --------------------------0--0--0--0--0--0--0--0--4--4--4--4--4--5--5--5--5--5-

CHORUS

PART A

G -----------------------------------------------------------------------------------

D -----------------------------------------------------------------------------------

A -------------2--2--2--2--4--4--4--4--4--4--4--4--0--0--0--0------------------------

E -0--0--0--0--------------------------------------------------4--4--4--4--7--7--7--7

PART B

G -------------------------------------------------------------------------------

D -------------------------------------------------------------------------------

A -------------2--2--2--2--4--4--4--4--4--4--4--4--0--0--0--0--------------------

E -0--0--0--0--------------------------------------------------4--4--4--4--------

G -------------------------------------------------------------------------------

D -------------------------------------------------------------------------------

A --5--5--5--5--5--5--5--5----5--4--2--2--2--2---2--2--2-------------------------

E -------------------------------------------------------------------------------

LINK BIT

G --------------

D ------------2-

A -------2h4----

E --2h4---------

END

G ---------

D ---------

A ---------

E --5--4--0

Structure:

Intro A

(Wait for guitar only part)

Intro A

Intro B

Chorus A

Chorus B

Intro A

Intro B

Chorus A

Link Bit

Chorus B

End

Get this song at:  amazon.com sheetmusicplus.com

Share your thoughts

0 Comments found